  0
SECTION
  2
HEADER
  9
$ACADVER
  1
AC1006
  9
$EXTMIN
 10
-1.249969
 20
-1.139465
  9
$EXTMAX
 10
1.249965
 20
1.139323
  9
$LTSCALE
 40
0.000394
  9
$PDMODE
 70
    35
  9
$PDSIZE
 40
0.000315
  0
ENDSEC
  0
SECTION
  2
TABLES
  0
TABLE
  2
LTYPE
 70
     9
  0
LTYPE
  2
CONTINUOUS
 70
    64
  3
Solid line
 72
    65
 73
     0
 40
0.000000
  0
LTYPE
  2
DASHED
 70
    64
  3
__ __ __ __ __ __ __ __ __ __ __ __ __ __ __
 72
    65
 73
     2
 40
0.000003
 49
0.000002
 49
-0.000001
  0
LTYPE
  2
HIDDEN
 70
    64
  3
 _ _ _ _ _ _ _ _ _ _ _ _ _ _ _ _ _ _ _ _ _ _
 72
    65
 73
     2
 40
0.000001
 49
0.000001
 49
-0.000000
  0
LTYPE
  2
CENTER
 70
    64
  3
____ _ ____ _ ____ _ ____ _ ____ _ ____ _ ____
 72
    65
 73
     4
 40
0.000008
 49
0.000005
 49
-0.000001
 49
0.000001
 49
-0.000001
  0
LTYPE
  2
PHANTOM
 70
    64
  3
_____ _ _ _____ _ _ _____ _ _ _____ _ _ ____
 72
    65
 73
     6
 40
0.000010
 49
0.000005
 49
-0.000001
 49
0.000001
 49
-0.000001
 49
0.000001
 49
-0.000001
  0
LTYPE
  2
DOT
 70
    64
  3
...............................................
 72
    65
 73
     2
 40
0.000001
 49
0.000000
 49
-0.000001
  0
LTYPE
  2
DASHDOT
 70
    64
  3
__ . __ . __ . __ . __ . __ . __ . __ . __ . __
 72
    65
 73
     4
 40
0.000004
 49
0.000002
 49
-0.000001
 49
0.000000
 49
-0.000001
  0
LTYPE
  2
BORDER
 70
    64
  3
__ __ . __ __ . __ __ . __ __ . __ __ . __ __
 72
    65
 73
     6
 40
0.000007
 49
0.000002
 49
-0.000001
 49
0.000002
 49
-0.000001
 49
0.000000
 49
-0.000001
  0
LTYPE
  2
DIVIDE
 70
    64
  3
__ . . __ . . __ . . __ . . __ . . __ . . __
 72
    65
 73
     6
 40
0.000005
 49
0.000002
 49
-0.000001
 49
0.000000
 49
-0.000001
 49
0.000000
 49
-0.000001
  0
LTYPE
  2
DOTDOT
 70
    64
  3
 . .  . .  . .  . .  . .  . . 
 72
    65
 73
     5
 40
0.000002
 49
-0.000001
 49
0.000000
 49
-0.000001
 49
0.000000
 49
-0.000001
  0
ENDTAB
  0
TABLE
  2
STYLE
 70
     0
  0
ENDTAB
  0
TABLE
  2
LAYER
 70
     3
  0
LAYER
  2
FOREGROUND
 70
    64
 62
     7
  6
CONTINUOUS
  0
LAYER
  2
BACKGROUND
 70
    65
 62
    -7
  6
CONTINUOUS
  0
LAYER
  2
LAYER_1
 70
    64
 62
     7
  6
CONTINUOUS
  0
ENDTAB
  0
ENDSEC
  0
SECTION
  2
ENTITIES
  0
POLYLINE
  8
LAYER_1
 62
    20
  6
CONTINUOUS
 66
     1
 40
0.003000
 41
0.003000
 70
     1
  0
VERTEX
  8
LAYER_1
 62
    20
  6
CONTINUOUS
 10
-1.248469
 20
0.481319
  0
VERTEX
  8
LAYER_1
 62
    20
  6
CONTINUOUS
 10
-1.248469
 20
0.523693
  0
VERTEX
  8
LAYER_1
 62
    20
  6
CONTINUOUS
 10
-1.247158
 20
0.523668
  0
VERTEX
  8
LAYER_1
 62
    20
  6
CONTINUOUS
 10
-1.245848
 20
0.523654
  0
VERTEX
  8
LAYER_1
 62
    20
  6
CONTINUOUS
 10
-1.244535
 20
0.523650
  0
VERTEX
  8
LAYER_1
 62
    20
  6
CONTINUOUS
 10
-1.226989
 20
0.524600
  0
VERTEX
  8
LAYER_1
 62
    20
  6
CONTINUOUS
 10
-1.209979
 20
0.527384
  0
VERTEX
  8
LAYER_1
 62
    20
  6
CONTINUOUS
 10
-1.193606
 20
0.531902
  0
VERTEX
  8
LAYER_1
 62
    20
  6
CONTINUOUS
 10
-1.177970
 20
0.538055
  0
VERTEX
  8
LAYER_1
 62
    20
  6
CONTINUOUS
 10
-1.163170
 20
0.545742
  0
VERTEX
  8
LAYER_1
 62
    20
  6
CONTINUOUS
 10
-1.149306
 20
0.554864
  0
VERTEX
  8
LAYER_1
 62
    20
  6
CONTINUOUS
 10
-1.136478
 20
0.565321
  0
VERTEX
  8
LAYER_1
 62
    20
  6
CONTINUOUS
 10
-1.124786
 20
0.577013
  0
VERTEX
  8
LAYER_1
 62
    20
  6
CONTINUOUS
 10
-1.114329
 20
0.589841
  0
VERTEX
  8
LAYER_1
 62
    20
  6
CONTINUOUS
 10
-1.105206
 20
0.603704
  0
VERTEX
  8
LAYER_1
 62
    20
  6
CONTINUOUS
 10
-1.097519
 20
0.618504
  0
VERTEX
  8
LAYER_1
 62
    20
  6
CONTINUOUS
 10
-1.091367
 20
0.634140
  0
VERTEX
  8
LAYER_1
 62
    20
  6
CONTINUOUS
 10
-1.086848
 20
0.650512
  0
VERTEX
  8
LAYER_1
 62
    20
  6
CONTINUOUS
 10
-1.084064
 20
0.667521
  0
VERTEX
  8
LAYER_1
 62
    20
  6
CONTINUOUS
 10
-1.083114
 20
0.685067
  0
VERTEX
  8
LAYER_1
 62
    20
  6
CONTINUOUS
 10
-1.084064
 20
0.702613
  0
VERTEX
  8
LAYER_1
 62
    20
  6
CONTINUOUS
 10
-1.086848
 20
0.719622
  0
VERTEX
  8
LAYER_1
 62
    20
  6
CONTINUOUS
 10
-1.091367
 20
0.735994
  0
VERTEX
  8
LAYER_1
 62
    20
  6
CONTINUOUS
 10
-1.097519
 20
0.751630
  0
VERTEX
  8
LAYER_1
 62
    20
  6
CONTINUOUS
 10
-1.105206
 20
0.766429
  0
VERTEX
  8
LAYER_1
 62
    20
  6
CONTINUOUS
 10
-1.114329
 20
0.780293
  0
VERTEX
  8
LAYER_1
 62
    20
  6
CONTINUOUS
 10
-1.124786
 20
0.793121
  0
VERTEX
  8
LAYER_1
 62
    20
  6
CONTINUOUS
 10
-1.136478
 20
0.804813
  0
VERTEX
  8
LAYER_1
 62
    20
  6
CONTINUOUS
 10
-1.149306
 20
0.815270
  0
VERTEX
  8
LAYER_1
 62
    20
  6
CONTINUOUS
 10
-1.163170
 20
0.824392
  0
VERTEX
  8
LAYER_1
 62
    20
  6
CONTINUOUS
 10
-1.177970
 20
0.832079
  0
VERTEX
  8
LAYER_1
 62
    20
  6
CONTINUOUS
 10
-1.193606
 20
0.838232
  0
VERTEX
  8
LAYER_1
 62
    20
  6
CONTINUOUS
 10
-1.209979
 20
0.842750
  0
VERTEX
  8
LAYER_1
 62
    20
  6
CONTINUOUS
 10
-1.226989
 20
0.845534
  0
VERTEX
  8
LAYER_1
 62
    20
  6
CONTINUOUS
 10
-1.244535
 20
0.846484
  0
VERTEX
  8
LAYER_1
 62
    20
  6
CONTINUOUS
 10
-1.245848
 20
0.846478
  0
VERTEX
  8
LAYER_1
 62
    20
  6
CONTINUOUS
 10
-1.247158
 20
0.846460
  0
VERTEX
  8
LAYER_1
 62
    20
  6
CONTINUOUS
 10
-1.248469
 20
0.846433
  0
VERTEX
  8
LAYER_1
 62
    20
  6
CONTINUOUS
 10
-1.248469
 20
0.888815
  0
VERTEX
  8
LAYER_1
 62
    20
  6
CONTINUOUS
 10
-0.776028
 20
0.940972
  0
VERTEX
  8
LAYER_1
 62
    20
  6
CONTINUOUS
 10
-0.776028
 20
1.137823
  0
VERTEX
  8
LAYER_1
 62
    20
  6
CONTINUOUS
 10
-0.657917
 20
1.137823
  0
VERTEX
  8
LAYER_1
 62
    20
  6
CONTINUOUS
 10
-0.657917
 20
1.092906
  0
VERTEX
  8
LAYER_1
 62
    20
  6
CONTINUOUS
 10
-0.659079
 20
1.092965
  0
VERTEX
  8
LAYER_1
 62
    20
  6
CONTINUOUS
 10
-0.660245
 20
1.093005
  0
VERTEX
  8
LAYER_1
 62
    20
  6
CONTINUOUS
 10
-0.661417
 20
1.093020
  0
VERTEX
  8
LAYER_1
 62
    20
  6
CONTINUOUS
 10
-0.680050
 20
1.090001
  0
VERTEX
  8
LAYER_1
 62
    20
  6
CONTINUOUS
 10
-0.696257
 20
1.081600
  0
VERTEX
  8
LAYER_1
 62
    20
  6
CONTINUOUS
 10
-0.709053
 20
1.068804
  0
VERTEX
  8
LAYER_1
 62
    20
  6
CONTINUOUS
 10
-0.717453
 20
1.052597
  0
VERTEX
  8
LAYER_1
 62
    20
  6
CONTINUOUS
 10
-0.720472
 20
1.033965
  0
VERTEX
  8
LAYER_1
 62
    20
  6
CONTINUOUS
 10
-0.717453
 20
1.015332
  0
VERTEX
  8
LAYER_1
 62
    20
  6
CONTINUOUS
 10
-0.709053
 20
0.999125
  0
VERTEX
  8
LAYER_1
 62
    20
  6
CONTINUOUS
 10
-0.696257
 20
0.986329
  0
VERTEX
  8
LAYER_1
 62
    20
  6
CONTINUOUS
 10
-0.680050
 20
0.977929
  0
VERTEX
  8
LAYER_1
 62
    20
  6
CONTINUOUS
 10
-0.661417
 20
0.974909
  0
VERTEX
  8
LAYER_1
 62
    20
  6
CONTINUOUS
 10
-0.660245
 20
0.974921
  0
VERTEX
  8
LAYER_1
 62
    20
  6
CONTINUOUS
 10
-0.659079
 20
0.974956
  0
VERTEX
  8
LAYER_1
 62
    20
  6
CONTINUOUS
 10
-0.657917
 20
0.975012
  0
VERTEX
  8
LAYER_1
 62
    20
  6
CONTINUOUS
 10
-0.657917
 20
0.395110
  0
VERTEX
  8
LAYER_1
 62
    20
  6
CONTINUOUS
 10
-0.659079
 20
0.395170
  0
VERTEX
  8
LAYER_1
 62
    20
  6
CONTINUOUS
 10
-0.660245
 20
0.395210
  0
VERTEX
  8
LAYER_1
 62
    20
  6
CONTINUOUS
 10
-0.661417
 20
0.395224
  0
VERTEX
  8
LAYER_1
 62
    20
  6
CONTINUOUS
 10
-0.680050
 20
0.392205
  0
VERTEX
  8
LAYER_1
 62
    20
  6
CONTINUOUS
 10
-0.696257
 20
0.383805
  0
VERTEX
  8
LAYER_1
 62
    20
  6
CONTINUOUS
 10
-0.709053
 20
0.371009
  0
VERTEX
  8
LAYER_1
 62
    20
  6
CONTINUOUS
 10
-0.717453
 20
0.354802
  0
VERTEX
  8
LAYER_1
 62
    20
  6
CONTINUOUS
 10
-0.720472
 20
0.336169
  0
VERTEX
  8
LAYER_1
 62
    20
  6
CONTINUOUS
 10
-0.717453
 20
0.317537
  0
VERTEX
  8
LAYER_1
 62
    20
  6
CONTINUOUS
 10
-0.709053
 20
0.301330
  0
VERTEX
  8
LAYER_1
 62
    20
  6
CONTINUOUS
 10
-0.696257
 20
0.288534
  0
VERTEX
  8
LAYER_1
 62
    20
  6
CONTINUOUS
 10
-0.680050
 20
0.280133
  0
VERTEX
  8
LAYER_1
 62
    20
  6
CONTINUOUS
 10
-0.661417
 20
0.277114
  0
VERTEX
  8
LAYER_1
 62
    20
  6
CONTINUOUS
 10
-0.660245
 20
0.277126
  0
VERTEX
  8
LAYER_1
 62
    20
  6
CONTINUOUS
 10
-0.659079
 20
0.277160
  0
VERTEX
  8
LAYER_1
 62
    20
  6
CONTINUOUS
 10
-0.657917
 20
0.277217
  0
VERTEX
  8
LAYER_1
 62
    20
  6
CONTINUOUS
 10
-0.657917
 20
0.232311
  0
VERTEX
  8
LAYER_1
 62
    20
  6
CONTINUOUS
 10
-0.776028
 20
0.232311
  0
VERTEX
  8
LAYER_1
 62
    20
  6
CONTINUOUS
 10
-0.776028
 20
0.429161
  0
SEQEND
  8
0
  0
POLYLINE
  8
LAYER_1
 62
    20
  6
CONTINUOUS
 66
     1
 40
0.003000
 41
0.003000
 70
     1
  0
VERTEX
  8
LAYER_1
 62
    20
  6
CONTINUOUS
 10
-0.937445
 20
0.685067
  0
VERTEX
  8
LAYER_1
 62
    20
  6
CONTINUOUS
 10
-0.934224
 20
0.704940
  0
VERTEX
  8
LAYER_1
 62
    20
  6
CONTINUOUS
 10
-0.925263
 20
0.722227
  0
VERTEX
  8
LAYER_1
 62
    20
  6
CONTINUOUS
 10
-0.911613
 20
0.735877
  0
VERTEX
  8
LAYER_1
 62
    20
  6
CONTINUOUS
 10
-0.894326
 20
0.744838
  0
VERTEX
  8
LAYER_1
 62
    20
  6
CONTINUOUS
 10
-0.874453
 20
0.748059
  0
VERTEX
  8
LAYER_1
 62
    20
  6
CONTINUOUS
 10
-0.854579
 20
0.744838
  0
VERTEX
  8
LAYER_1
 62
    20
  6
CONTINUOUS
 10
-0.837292
 20
0.735877
  0
VERTEX
  8
LAYER_1
 62
    20
  6
CONTINUOUS
 10
-0.823642
 20
0.722227
  0
VERTEX
  8
LAYER_1
 62
    20
  6
CONTINUOUS
 10
-0.814681
 20
0.704940
  0
VERTEX
  8
LAYER_1
 62
    20
  6
CONTINUOUS
 10
-0.811461
 20
0.685067
  0
VERTEX
  8
LAYER_1
 62
    20
  6
CONTINUOUS
 10
-0.814681
 20
0.665194
  0
VERTEX
  8
LAYER_1
 62
    20
  6
CONTINUOUS
 10
-0.823642
 20
0.647906
  0
VERTEX
  8
LAYER_1
 62
    20
  6
CONTINUOUS
 10
-0.837292
 20
0.634256
  0
VERTEX
  8
LAYER_1
 62
    20
  6
CONTINUOUS
 10
-0.854579
 20
0.625295
  0
VERTEX
  8
LAYER_1
 62
    20
  6
CONTINUOUS
 10
-0.874453
 20
0.622075
  0
VERTEX
  8
LAYER_1
 62
    20
  6
CONTINUOUS
 10
-0.894326
 20
0.625295
  0
VERTEX
  8
LAYER_1
 62
    20
  6
CONTINUOUS
 10
-0.911613
 20
0.634256
  0
VERTEX
  8
LAYER_1
 62
    20
  6
CONTINUOUS
 10
-0.925263
 20
0.647906
  0
VERTEX
  8
LAYER_1
 62
    20
  6
CONTINUOUS
 10
-0.934224
 20
0.665194
  0
SEQEND
  8
0
  0
POLYLINE
  8
LAYER_1
 62
    20
  6
CONTINUOUS
 66
     1
 40
0.003000
 41
0.003000
 70
     1
  0
VERTEX
  8
LAYER_1
 62
    20
  6
CONTINUOUS
 10
-0.065756
 20
-0.395535
  0
VERTEX
  8
LAYER_1
 62
    20
  6
CONTINUOUS
 10
-0.065756
 20
-0.326161
  0
VERTEX
  8
LAYER_1
 62
    20
  6
CONTINUOUS
 10
-0.067066
 20
-0.326187
  0
VERTEX
  8
LAYER_1
 62
    20
  6
CONTINUOUS
 10
-0.068376
 20
-0.326200
  0
VERTEX
  8
LAYER_1
 62
    20
  6
CONTINUOUS
 10
-0.069689
 20
-0.326205
  0
VERTEX
  8
LAYER_1
 62
    20
  6
CONTINUOUS
 10
-0.087236
 20
-0.325255
  0
VERTEX
  8
LAYER_1
 62
    20
  6
CONTINUOUS
 10
-0.104245
 20
-0.322470
  0
VERTEX
  8
LAYER_1
 62
    20
  6
CONTINUOUS
 10
-0.120618
 20
-0.317952
  0
VERTEX
  8
LAYER_1
 62
    20
  6
CONTINUOUS
 10
-0.136254
 20
-0.311800
  0
VERTEX
  8
LAYER_1
 62
    20
  6
CONTINUOUS
 10
-0.151054
 20
-0.304113
  0
VERTEX
  8
LAYER_1
 62
    20
  6
CONTINUOUS
 10
-0.164918
 20
-0.294991
  0
VERTEX
  8
LAYER_1
 62
    20
  6
CONTINUOUS
 10
-0.177746
 20
-0.284534
  0
VERTEX
  8
LAYER_1
 62
    20
  6
CONTINUOUS
 10
-0.189439
 20
-0.272841
  0
VERTEX
  8
LAYER_1
 62
    20
  6
CONTINUOUS
 10
-0.199896
 20
-0.260013
  0
VERTEX
  8
LAYER_1
 62
    20
  6
CONTINUOUS
 10
-0.209018
 20
-0.246150
  0
VERTEX
  8
LAYER_1
 62
    20
  6
CONTINUOUS
 10
-0.216705
 20
-0.231350
  0
VERTEX
  8
LAYER_1
 62
    20
  6
CONTINUOUS
 10
-0.222858
 20
-0.215715
  0
VERTEX
  8
LAYER_1
 62
    20
  6
CONTINUOUS
 10
-0.227376
 20
-0.199342
  0
VERTEX
  8
LAYER_1
 62
    20
  6
CONTINUOUS
 10
-0.230160
 20
-0.182333
  0
VERTEX
  8
LAYER_1
 62
    20
  6
CONTINUOUS
 10
-0.231110
 20
-0.164787
  0
VERTEX
  8
LAYER_1
 62
    20
  6
CONTINUOUS
 10
-0.230160
 20
-0.147242
  0
VERTEX
  8
LAYER_1
 62
    20
  6
CONTINUOUS
 10
-0.227376
 20
-0.130233
  0
VERTEX
  8
LAYER_1
 62
    20
  6
CONTINUOUS
 10
-0.222858
 20
-0.113860
  0
VERTEX
  8
LAYER_1
 62
    20
  6
CONTINUOUS
 10
-0.216705
 20
-0.098224
  0
VERTEX
  8
LAYER_1
 62
    20
  6
CONTINUOUS
 10
-0.209018
 20
-0.083425
  0
VERTEX
  8
LAYER_1
 62
    20
  6
CONTINUOUS
 10
-0.199896
 20
-0.069561
  0
VERTEX
  8
LAYER_1
 62
    20
  6
CONTINUOUS
 10
-0.189439
 20
-0.056733
  0
VERTEX
  8
LAYER_1
 62
    20
  6
CONTINUOUS
 10
-0.177746
 20
-0.045041
  0
VERTEX
  8
LAYER_1
 62
    20
  6
CONTINUOUS
 10
-0.164918
 20
-0.034584
  0
VERTEX
  8
LAYER_1
 62
    20
  6
CONTINUOUS
 10
-0.151054
 20
-0.025462
  0
VERTEX
  8
LAYER_1
 62
    20
  6
CONTINUOUS
 10
-0.136254
 20
-0.017775
  0
VERTEX
  8
LAYER_1
 62
    20
  6
CONTINUOUS
 10
-0.120618
 20
-0.011623
  0
VERTEX
  8
LAYER_1
 62
    20
  6
CONTINUOUS
 10
-0.104245
 20
-0.007104
  0
VERTEX
  8
LAYER_1
 62
    20
  6
CONTINUOUS
 10
-0.087236
 20
-0.004320
  0
VERTEX
  8
LAYER_1
 62
    20
  6
CONTINUOUS
 10
-0.069689
 20
-0.003370
  0
VERTEX
  8
LAYER_1
 62
    20
  6
CONTINUOUS
 10
-0.068376
 20
-0.003376
  0
VERTEX
  8
LAYER_1
 62
    20
  6
CONTINUOUS
 10
-0.067066
 20
-0.003394
  0
VERTEX
  8
LAYER_1
 62
    20
  6
CONTINUOUS
 10
-0.065756
 20
-0.003421
  0
VERTEX
  8
LAYER_1
 62
    20
  6
CONTINUOUS
 10
-0.065756
 20
0.059961
  0
VERTEX
  8
LAYER_1
 62
    20
  6
CONTINUOUS
 10
-0.652807
 20
0.125055
  0
VERTEX
  8
LAYER_1
 62
    20
  6
CONTINUOUS
 10
-0.653980
 20
0.125067
  0
VERTEX
  8
LAYER_1
 62
    20
  6
CONTINUOUS
 10
-0.655145
 20
0.125101
  0
VERTEX
  8
LAYER_1
 62
    20
  6
CONTINUOUS
 10
-0.656307
 20
0.125157
  0
VERTEX
  8
LAYER_1
 62
    20
  6
CONTINUOUS
 10
-0.656307
 20
-0.454744
  0
SEQEND
  8
0
  0
POLYLINE
  8
LAYER_1
 62
    20
  6
CONTINUOUS
 66
     1
 40
0.003000
 41
0.003000
 70
     1
  0
VERTEX
  8
LAYER_1
 62
    20
  6
CONTINUOUS
 10
-0.376780
 20
-0.164787
  0
VERTEX
  8
LAYER_1
 62
    20
  6
CONTINUOUS
 10
-0.380000
 20
-0.144914
  0
VERTEX
  8
LAYER_1
 62
    20
  6
CONTINUOUS
 10
-0.388961
 20
-0.127627
  0
VERTEX
  8
LAYER_1
 62
    20
  6
CONTINUOUS
 10
-0.402611
 20
-0.113977
  0
VERTEX
  8
LAYER_1
 62
    20
  6
CONTINUOUS
 10
-0.419898
 20
-0.105016
  0
VERTEX
  8
LAYER_1
 62
    20
  6
CONTINUOUS
 10
-0.439772
 20
-0.101795
  0
VERTEX
  8
LAYER_1
 62
    20
  6
CONTINUOUS
 10
-0.459645
 20
-0.105016
  0
VERTEX
  8
LAYER_1
 62
    20
  6
CONTINUOUS
 10
-0.476932
 20
-0.113977
  0
VERTEX
  8
LAYER_1
 62
    20
  6
CONTINUOUS
 10
-0.490582
 20
-0.127627
  0
VERTEX
  8
LAYER_1
 62
    20
  6
CONTINUOUS
 10
-0.499543
 20
-0.144914
  0
VERTEX
  8
LAYER_1
 62
    20
  6
CONTINUOUS
 10
-0.502764
 20
-0.164787
  0
VERTEX
  8
LAYER_1
 62
    20
  6
CONTINUOUS
 10
-0.499543
 20
-0.184661
  0
VERTEX
  8
LAYER_1
 62
    20
  6
CONTINUOUS
 10
-0.490582
 20
-0.201948
  0
VERTEX
  8
LAYER_1
 62
    20
  6
CONTINUOUS
 10
-0.476932
 20
-0.215598
  0
VERTEX
  8
LAYER_1
 62
    20
  6
CONTINUOUS
 10
-0.459645
 20
-0.224559
  0
VERTEX
  8
LAYER_1
 62
    20
  6
CONTINUOUS
 10
-0.439772
 20
-0.227780
  0
VERTEX
  8
LAYER_1
 62
    20
  6
CONTINUOUS
 10
-0.419898
 20
-0.224559
  0
VERTEX
  8
LAYER_1
 62
    20
  6
CONTINUOUS
 10
-0.402611
 20
-0.215598
  0
VERTEX
  8
LAYER_1
 62
    20
  6
CONTINUOUS
 10
-0.388961
 20
-0.201948
  0
VERTEX
  8
LAYER_1
 62
    20
  6
CONTINUOUS
 10
-0.380000
 20
-0.184661
  0
SEQEND
  8
0
  0
POLYLINE
  8
LAYER_1
 62
    20
  6
CONTINUOUS
 66
     1
 40
0.003000
 41
0.003000
 70
     1
  0
VERTEX
  8
LAYER_1
 62
    20
  6
CONTINUOUS
 10
-1.246858
 20
-0.395535
  0
VERTEX
  8
LAYER_1
 62
    20
  6
CONTINUOUS
 10
-1.246858
 20
-0.326161
  0
VERTEX
  8
LAYER_1
 62
    20
  6
CONTINUOUS
 10
-1.245548
 20
-0.326187
  0
VERTEX
  8
LAYER_1
 62
    20
  6
CONTINUOUS
 10
-1.244238
 20
-0.326200
  0
VERTEX
  8
LAYER_1
 62
    20
  6
CONTINUOUS
 10
-1.242925
 20
-0.326205
  0
VERTEX
  8
LAYER_1
 62
    20
  6
CONTINUOUS
 10
-1.225379
 20
-0.325255
  0
VERTEX
  8
LAYER_1
 62
    20
  6
CONTINUOUS
 10
-1.208369
 20
-0.322470
  0
VERTEX
  8
LAYER_1
 62
    20
  6
CONTINUOUS
 10
-1.191996
 20
-0.317952
  0
VERTEX
  8
LAYER_1
 62
    20
  6
CONTINUOUS
 10
-1.176360
 20
-0.311800
  0
VERTEX
  8
LAYER_1
 62
    20
  6
CONTINUOUS
 10
-1.161560
 20
-0.304113
  0
VERTEX
  8
LAYER_1
 62
    20
  6
CONTINUOUS
 10
-1.147696
 20
-0.294991
  0
VERTEX
  8
LAYER_1
 62
    20
  6
CONTINUOUS
 10
-1.134868
 20
-0.284534
  0
VERTEX
  8
LAYER_1
 62
    20
  6
CONTINUOUS
 10
-1.123175
 20
-0.272841
  0
VERTEX
  8
LAYER_1
 62
    20
  6
CONTINUOUS
 10
-1.112718
 20
-0.260013
  0
VERTEX
  8
LAYER_1
 62
    20
  6
CONTINUOUS
 10
-1.103596
 20
-0.246150
  0
VERTEX
  8
LAYER_1
 62
    20
  6
CONTINUOUS
 10
-1.095909
 20
-0.231350
  0
VERTEX
  8
LAYER_1
 62
    20
  6
CONTINUOUS
 10
-1.089756
 20
-0.215715
  0
VERTEX
  8
LAYER_1
 62
    20
  6
CONTINUOUS
 10
-1.085238
 20
-0.199342
  0
VERTEX
  8
LAYER_1
 62
    20
  6
CONTINUOUS
 10
-1.082454
 20
-0.182333
  0
VERTEX
  8
LAYER_1
 62
    20
  6
CONTINUOUS
 10
-1.081504
 20
-0.164787
  0
VERTEX
  8
LAYER_1
 62
    20
  6
CONTINUOUS
 10
-1.082454
 20
-0.147242
  0
VERTEX
  8
LAYER_1
 62
    20
  6
CONTINUOUS
 10
-1.085238
 20
-0.130233
  0
VERTEX
  8
LAYER_1
 62
    20
  6
CONTINUOUS
 10
-1.089756
 20
-0.113860
  0
VERTEX
  8
LAYER_1
 62
    20
  6
CONTINUOUS
 10
-1.095909
 20
-0.098224
  0
VERTEX
  8
LAYER_1
 62
    20
  6
CONTINUOUS
 10
-1.103596
 20
-0.083425
  0
VERTEX
  8
LAYER_1
 62
    20
  6
CONTINUOUS
 10
-1.112718
 20
-0.069561
  0
VERTEX
  8
LAYER_1
 62
    20
  6
CONTINUOUS
 10
-1.123175
 20
-0.056733
  0
VERTEX
  8
LAYER_1
 62
    20
  6
CONTINUOUS
 10
-1.134868
 20
-0.045041
  0
VERTEX
  8
LAYER_1
 62
    20
  6
CONTINUOUS
 10
-1.147696
 20
-0.034584
  0
VERTEX
  8
LAYER_1
 62
    20
  6
CONTINUOUS
 10
-1.161560
 20
-0.025462
  0
VERTEX
  8
LAYER_1
 62
    20
  6
CONTINUOUS
 10
-1.176360
 20
-0.017775
  0
VERTEX
  8
LAYER_1
 62
    20
  6
CONTINUOUS
 10
-1.191996
 20
-0.011623
  0
VERTEX
  8
LAYER_1
 62
    20
  6
CONTINUOUS
 10
-1.208369
 20
-0.007104
  0
VERTEX
  8
LAYER_1
 62
    20
  6
CONTINUOUS
 10
-1.225379
 20
-0.004320
  0
VERTEX
  8
LAYER_1
 62
    20
  6
CONTINUOUS
 10
-1.242925
 20
-0.003370
  0
VERTEX
  8
LAYER_1
 62
    20
  6
CONTINUOUS
 10
-1.244238
 20
-0.003376
  0
VERTEX
  8
LAYER_1
 62
    20
  6
CONTINUOUS
 10
-1.245548
 20
-0.003394
  0
VERTEX
  8
LAYER_1
 62
    20
  6
CONTINUOUS
 10
-1.246858
 20
-0.003421
  0
VERTEX
  8
LAYER_1
 62
    20
  6
CONTINUOUS
 10
-1.246858
 20
0.059961
  0
VERTEX
  8
LAYER_1
 62
    20
  6
CONTINUOUS
 10
-0.659807
 20
0.125055
  0
VERTEX
  8
LAYER_1
 62
    20
  6
CONTINUOUS
 10
-0.658635
 20
0.125067
  0
VERTEX
  8
LAYER_1
 62
    20
  6
CONTINUOUS
 10
-0.657469
 20
0.125101
  0
VERTEX
  8
LAYER_1
 62
    20
  6
CONTINUOUS
 10
-0.656307
 20
0.125157
  0
VERTEX
  8
LAYER_1
 62
    20
  6
CONTINUOUS
 10
-0.656307
 20
-0.454744
  0
SEQEND
  8
0
  0
POLYLINE
  8
LAYER_1
 62
    20
  6
CONTINUOUS
 66
     1
 40
0.003000
 41
0.003000
 70
     1
  0
VERTEX
  8
LAYER_1
 62
    20
  6
CONTINUOUS
 10
-0.935835
 20
-0.164787
  0
VERTEX
  8
LAYER_1
 62
    20
  6
CONTINUOUS
 10
-0.932614
 20
-0.144914
  0
VERTEX
  8
LAYER_1
 62
    20
  6
CONTINUOUS
 10
-0.923653
 20
-0.127627
  0
VERTEX
  8
LAYER_1
 62
    20
  6
CONTINUOUS
 10
-0.910003
 20
-0.113977
  0
VERTEX
  8
LAYER_1
 62
    20
  6
CONTINUOUS
 10
-0.892716
 20
-0.105016
  0
VERTEX
  8
LAYER_1
 62
    20
  6
CONTINUOUS
 10
-0.872843
 20
-0.101795
  0
VERTEX
  8
LAYER_1
 62
    20
  6
CONTINUOUS
 10
-0.852969
 20
-0.105016
  0
VERTEX
  8
LAYER_1
 62
    20
  6
CONTINUOUS
 10
-0.835682
 20
-0.113977
  0
VERTEX
  8
LAYER_1
 62
    20
  6
CONTINUOUS
 10
-0.822032
 20
-0.127627
  0
VERTEX
  8
LAYER_1
 62
    20
  6
CONTINUOUS
 10
-0.813071
 20
-0.144914
  0
VERTEX
  8
LAYER_1
 62
    20
  6
CONTINUOUS
 10
-0.809850
 20
-0.164787
  0
VERTEX
  8
LAYER_1
 62
    20
  6
CONTINUOUS
 10
-0.813071
 20
-0.184661
  0
VERTEX
  8
LAYER_1
 62
    20
  6
CONTINUOUS
 10
-0.822032
 20
-0.201948
  0
VERTEX
  8
LAYER_1
 62
    20
  6
CONTINUOUS
 10
-0.835682
 20
-0.215598
  0
VERTEX
  8
LAYER_1
 62
    20
  6
CONTINUOUS
 10
-0.852969
 20
-0.224559
  0
VERTEX
  8
LAYER_1
 62
    20
  6
CONTINUOUS
 10
-0.872843
 20
-0.227780
  0
VERTEX
  8
LAYER_1
 62
    20
  6
CONTINUOUS
 10
-0.892716
 20
-0.224559
  0
VERTEX
  8
LAYER_1
 62
    20
  6
CONTINUOUS
 10
-0.910003
 20
-0.215598
  0
VERTEX
  8
LAYER_1
 62
    20
  6
CONTINUOUS
 10
-0.923653
 20
-0.201948
  0
VERTEX
  8
LAYER_1
 62
    20
  6
CONTINUOUS
 10
-0.932614
 20
-0.184661
  0
SEQEND
  8
0
  0
POLYLINE
  8
LAYER_1
 62
    20
  6
CONTINUOUS
 66
     1
 40
0.003000
 41
0.003000
 70
     1
  0
VERTEX
  8
LAYER_1
 62
    20
  6
CONTINUOUS
 10
-0.065756
 20
-1.078610
  0
VERTEX
  8
LAYER_1
 62
    20
  6
CONTINUOUS
 10
-0.065756
 20
-1.009236
  0
VERTEX
  8
LAYER_1
 62
    20
  6
CONTINUOUS
 10
-0.067065
 20
-1.009258
  0
VERTEX
  8
LAYER_1
 62
    20
  6
CONTINUOUS
 10
-0.068376
 20
-1.009274
  0
VERTEX
  8
LAYER_1
 62
    20
  6
CONTINUOUS
 10
-0.069693
 20
-1.009280
  0
VERTEX
  8
LAYER_1
 62
    20
  6
CONTINUOUS
 10
-0.087239
 20
-1.008329
  0
VERTEX
  8
LAYER_1
 62
    20
  6
CONTINUOUS
 10
-0.104248
 20
-1.005545
  0
VERTEX
  8
LAYER_1
 62
    20
  6
CONTINUOUS
 10
-0.120620
 20
-1.001027
  0
VERTEX
  8
LAYER_1
 62
    20
  6
CONTINUOUS
 10
-0.136256
 20
-0.994875
  0
VERTEX
  8
LAYER_1
 62
    20
  6
CONTINUOUS
 10
-0.151055
 20
-0.987188
  0
VERTEX
  8
LAYER_1
 62
    20
  6
CONTINUOUS
 10
-0.164919
 20
-0.978066
  0
VERTEX
  8
LAYER_1
 62
    20
  6
CONTINUOUS
 10
-0.177747
 20
-0.967609
  0
VERTEX
  8
LAYER_1
 62
    20
  6
CONTINUOUS
 10
-0.189439
 20
-0.955917
  0
VERTEX
  8
LAYER_1
 62
    20
  6
CONTINUOUS
 10
-0.199896
 20
-0.943089
  0
VERTEX
  8
LAYER_1
 62
    20
  6
CONTINUOUS
 10
-0.209018
 20
-0.929226
  0
VERTEX
  8
LAYER_1
 62
    20
  6
CONTINUOUS
 10
-0.216705
 20
-0.914427
  0
VERTEX
  8
LAYER_1
 62
    20
  6
CONTINUOUS
 10
-0.222858
 20
-0.898791
  0
VERTEX
  8
LAYER_1
 62
    20
  6
CONTINUOUS
 10
-0.227376
 20
-0.882420
  0
VERTEX
  8
LAYER_1
 62
    20
  6
CONTINUOUS
 10
-0.230160
 20
-0.865411
  0
VERTEX
  8
LAYER_1
 62
    20
  6
CONTINUOUS
 10
-0.231110
 20
-0.847866
  0
VERTEX
  8
LAYER_1
 62
    20
  6
CONTINUOUS
 10
-0.231110
 20
-0.847866
  0
VERTEX
  8
LAYER_1
 62
    20
  6
CONTINUOUS
 10
-0.230160
 20
-0.830320
  0
VERTEX
  8
LAYER_1
 62
    20
  6
CONTINUOUS
 10
-0.227376
 20
-0.813310
  0
VERTEX
  8
LAYER_1
 62
    20
  6
CONTINUOUS
 10
-0.222858
 20
-0.796938
  0
VERTEX
  8
LAYER_1
 62
    20
  6
CONTINUOUS
 10
-0.216705
 20
-0.781302
  0
VERTEX
  8
LAYER_1
 62
    20
  6
CONTINUOUS
 10
-0.209018
 20
-0.766503
  0
VERTEX
  8
LAYER_1
 62
    20
  6
CONTINUOUS
 10
-0.199896
 20
-0.752639
  0
VERTEX
  8
LAYER_1
 62
    20
  6
CONTINUOUS
 10
-0.189439
 20
-0.739812
  0
VERTEX
  8
LAYER_1
 62
    20
  6
CONTINUOUS
 10
-0.177746
 20
-0.728120
  0
VERTEX
  8
LAYER_1
 62
    20
  6
CONTINUOUS
 10
-0.164918
 20
-0.717663
  0
VERTEX
  8
LAYER_1
 62
    20
  6
CONTINUOUS
 10
-0.151054
 20
-0.708541
  0
VERTEX
  8
LAYER_1
 62
    20
  6
CONTINUOUS
 10
-0.136254
 20
-0.700853
  0
VERTEX
  8
LAYER_1
 62
    20
  6
CONTINUOUS
 10
-0.120618
 20
-0.694700
  0
VERTEX
  8
LAYER_1
 62
    20
  6
CONTINUOUS
 10
-0.104245
 20
-0.690182
  0
VERTEX
  8
LAYER_1
 62
    20
  6
CONTINUOUS
 10
-0.087236
 20
-0.687396
  0
VERTEX
  8
LAYER_1
 62
    20
  6
CONTINUOUS
 10
-0.069689
 20
-0.686445
  0
VERTEX
  8
LAYER_1
 62
    20
  6
CONTINUOUS
 10
-0.068376
 20
-0.686451
  0
VERTEX
  8
LAYER_1
 62
    20
  6
CONTINUOUS
 10
-0.067066
 20
-0.686471
  0
VERTEX
  8
LAYER_1
 62
    20
  6
CONTINUOUS
 10
-0.065756
 20
-0.686504
  0
VERTEX
  8
LAYER_1
 62
    20
  6
CONTINUOUS
 10
-0.065756
 20
-0.623114
  0
VERTEX
  8
LAYER_1
 62
    20
  6
CONTINUOUS
 10
-0.652807
 20
-0.558020
  0
VERTEX
  8
LAYER_1
 62
    20
  6
CONTINUOUS
 10
-0.653979
 20
-0.558006
  0
VERTEX
  8
LAYER_1
 62
    20
  6
CONTINUOUS
 10
-0.655146
 20
-0.557972
  0
VERTEX
  8
LAYER_1
 62
    20
  6
CONTINUOUS
 10
-0.656307
 20
-0.557913
  0
VERTEX
  8
LAYER_1
 62
    20
  6
CONTINUOUS
 10
-0.656307
 20
-1.137819
  0
SEQEND
  8
0
  0
POLYLINE
  8
LAYER_1
 62
    20
  6
CONTINUOUS
 66
     1
 40
0.003000
 41
0.003000
 70
     1
  0
VERTEX
  8
LAYER_1
 62
    20
  6
CONTINUOUS
 10
-0.376780
 20
-0.847862
  0
VERTEX
  8
LAYER_1
 62
    20
  6
CONTINUOUS
 10
-0.380000
 20
-0.827989
  0
VERTEX
  8
LAYER_1
 62
    20
  6
CONTINUOUS
 10
-0.388961
 20
-0.810702
  0
VERTEX
  8
LAYER_1
 62
    20
  6
CONTINUOUS
 10
-0.402612
 20
-0.797052
  0
VERTEX
  8
LAYER_1
 62
    20
  6
CONTINUOUS
 10
-0.419900
 20
-0.788091
  0
VERTEX
  8
LAYER_1
 62
    20
  6
CONTINUOUS
 10
-0.439776
 20
-0.784870
  0
VERTEX
  8
LAYER_1
 62
    20
  6
CONTINUOUS
 10
-0.459647
 20
-0.788091
  0
VERTEX
  8
LAYER_1
 62
    20
  6
CONTINUOUS
 10
-0.476933
 20
-0.797053
  0
VERTEX
  8
LAYER_1
 62
    20
  6
CONTINUOUS
 10
-0.490582
 20
-0.810704
  0
VERTEX
  8
LAYER_1
 62
    20
  6
CONTINUOUS
 10
-0.499543
 20
-0.827992
  0
VERTEX
  8
LAYER_1
 62
    20
  6
CONTINUOUS
 10
-0.502764
 20
-0.847866
  0
VERTEX
  8
LAYER_1
 62
    20
  6
CONTINUOUS
 10
-0.499542
 20
-0.867739
  0
VERTEX
  8
LAYER_1
 62
    20
  6
CONTINUOUS
 10
-0.490580
 20
-0.885025
  0
VERTEX
  8
LAYER_1
 62
    20
  6
CONTINUOUS
 10
-0.476930
 20
-0.898674
  0
VERTEX
  8
LAYER_1
 62
    20
  6
CONTINUOUS
 10
-0.459643
 20
-0.907634
  0
VERTEX
  8
LAYER_1
 62
    20
  6
CONTINUOUS
 10
-0.439768
 20
-0.910854
  0
VERTEX
  8
LAYER_1
 62
    20
  6
CONTINUOUS
 10
-0.419896
 20
-0.907634
  0
VERTEX
  8
LAYER_1
 62
    20
  6
CONTINUOUS
 10
-0.402610
 20
-0.898673
  0
VERTEX
  8
LAYER_1
 62
    20
  6
CONTINUOUS
 10
-0.388961
 20
-0.885023
  0
VERTEX
  8
LAYER_1
 62
    20
  6
CONTINUOUS
 10
-0.380000
 20
-0.867735
  0
SEQEND
  8
0
  0
POLYLINE
  8
LAYER_1
 62
    20
  6
CONTINUOUS
 66
     1
 40
0.003000
 41
0.003000
 70
     1
  0
VERTEX
  8
LAYER_1
 62
    20
  6
CONTINUOUS
 10
-1.246858
 20
-1.078610
  0
VERTEX
  8
LAYER_1
 62
    20
  6
CONTINUOUS
 10
-1.246858
 20
-1.009236
  0
VERTEX
  8
LAYER_1
 62
    20
  6
CONTINUOUS
 10
-1.245548
 20
-1.009263
  0
VERTEX
  8
LAYER_1
 62
    20
  6
CONTINUOUS
 10
-1.244238
 20
-1.009276
  0
VERTEX
  8
LAYER_1
 62
    20
  6
CONTINUOUS
 10
-1.242925
 20
-1.009280
  0
VERTEX
  8
LAYER_1
 62
    20
  6
CONTINUOUS
 10
-1.225379
 20
-1.008329
  0
VERTEX
  8
LAYER_1
 62
    20
  6
CONTINUOUS
 10
-1.208369
 20
-1.005545
  0
VERTEX
  8
LAYER_1
 62
    20
  6
CONTINUOUS
 10
-1.191996
 20
-1.001027
  0
VERTEX
  8
LAYER_1
 62
    20
  6
CONTINUOUS
 10
-1.176360
 20
-0.994874
  0
VERTEX
  8
LAYER_1
 62
    20
  6
CONTINUOUS
 10
-1.161560
 20
-0.987187
  0
VERTEX
  8
LAYER_1
 62
    20
  6
CONTINUOUS
 10
-1.147696
 20
-0.978065
  0
VERTEX
  8
LAYER_1
 62
    20
  6
CONTINUOUS
 10
-1.134868
 20
-0.967608
  0
VERTEX
  8
LAYER_1
 62
    20
  6
CONTINUOUS
 10
-1.123175
 20
-0.955916
  0
VERTEX
  8
LAYER_1
 62
    20
  6
CONTINUOUS
 10
-1.112718
 20
-0.943087
  0
VERTEX
  8
LAYER_1
 62
    20
  6
CONTINUOUS
 10
-1.103596
 20
-0.929224
  0
VERTEX
  8
LAYER_1
 62
    20
  6
CONTINUOUS
 10
-1.095909
 20
-0.914424
  0
VERTEX
  8
LAYER_1
 62
    20
  6
CONTINUOUS
 10
-1.089756
 20
-0.898787
  0
VERTEX
  8
LAYER_1
 62
    20
  6
CONTINUOUS
 10
-1.085238
 20
-0.882414
  0
VERTEX
  8
LAYER_1
 62
    20
  6
CONTINUOUS
 10
-1.082454
 20
-0.865405
  0
VERTEX
  8
LAYER_1
 62
    20
  6
CONTINUOUS
 10
-1.081504
 20
-0.847858
  0
VERTEX
  8
LAYER_1
 62
    20
  6
CONTINUOUS
 10
-1.081504
 20
-0.847858
  0
VERTEX
  8
LAYER_1
 62
    20
  6
CONTINUOUS
 10
-1.082454
 20
-0.830313
  0
VERTEX
  8
LAYER_1
 62
    20
  6
CONTINUOUS
 10
-1.085238
 20
-0.813304
  0
VERTEX
  8
LAYER_1
 62
    20
  6
CONTINUOUS
 10
-1.089756
 20
-0.796932
  0
VERTEX
  8
LAYER_1
 62
    20
  6
CONTINUOUS
 10
-1.095909
 20
-0.781296
  0
VERTEX
  8
LAYER_1
 62
    20
  6
CONTINUOUS
 10
-1.103596
 20
-0.766497
  0
VERTEX
  8
LAYER_1
 62
    20
  6
CONTINUOUS
 10
-1.112719
 20
-0.752633
  0
VERTEX
  8
LAYER_1
 62
    20
  6
CONTINUOUS
 10
-1.123176
 20
-0.739805
  0
VERTEX
  8
LAYER_1
 62
    20
  6
CONTINUOUS
 10
-1.134869
 20
-0.728112
  0
VERTEX
  8
LAYER_1
 62
    20
  6
CONTINUOUS
 10
-1.147697
 20
-0.717655
  0
VERTEX
  8
LAYER_1
 62
    20
  6
CONTINUOUS
 10
-1.161561
 20
-0.708533
  0
VERTEX
  8
LAYER_1
 62
    20
  6
CONTINUOUS
 10
-1.176361
 20
-0.700846
  0
VERTEX
  8
LAYER_1
 62
    20
  6
CONTINUOUS
 10
-1.191998
 20
-0.694694
  0
VERTEX
  8
LAYER_1
 62
    20
  6
CONTINUOUS
 10
-1.208372
 20
-0.690177
  0
VERTEX
  8
LAYER_1
 62
    20
  6
CONTINUOUS
 10
-1.225382
 20
-0.687394
  0
VERTEX
  8
LAYER_1
 62
    20
  6
CONTINUOUS
 10
-1.242929
 20
-0.686445
  0
VERTEX
  8
LAYER_1
 62
    20
  6
CONTINUOUS
 10
-1.244241
 20
-0.686451
  0
VERTEX
  8
LAYER_1
 62
    20
  6
CONTINUOUS
 10
-1.245549
 20
-0.686468
  0
VERTEX
  8
LAYER_1
 62
    20
  6
CONTINUOUS
 10
-1.246858
 20
-0.686492
  0
VERTEX
  8
LAYER_1
 62
    20
  6
CONTINUOUS
 10
-1.246858
 20
-0.623110
  0
VERTEX
  8
LAYER_1
 62
    20
  6
CONTINUOUS
 10
-0.659807
 20
-0.558020
  0
VERTEX
  8
LAYER_1
 62
    20
  6
CONTINUOUS
 10
-0.658635
 20
-0.558010
  0
VERTEX
  8
LAYER_1
 62
    20
  6
CONTINUOUS
 10
-0.657469
 20
-0.557973
  0
VERTEX
  8
LAYER_1
 62
    20
  6
CONTINUOUS
 10
-0.656307
 20
-0.557913
  0
VERTEX
  8
LAYER_1
 62
    20
  6
CONTINUOUS
 10
-0.656307
 20
-1.137819
  0
SEQEND
  8
0
  0
POLYLINE
  8
LAYER_1
 62
    20
  6
CONTINUOUS
 66
     1
 40
0.003000
 41
0.003000
 70
     1
  0
VERTEX
  8
LAYER_1
 62
    20
  6
CONTINUOUS
 10
-0.935835
 20
-0.847862
  0
VERTEX
  8
LAYER_1
 62
    20
  6
CONTINUOUS
 10
-0.932614
 20
-0.827989
  0
VERTEX
  8
LAYER_1
 62
    20
  6
CONTINUOUS
 10
-0.923653
 20
-0.810702
  0
VERTEX
  8
LAYER_1
 62
    20
  6
CONTINUOUS
 10
-0.910003
 20
-0.797052
  0
VERTEX
  8
LAYER_1
 62
    20
  6
CONTINUOUS
 10
-0.892716
 20
-0.788091
  0
VERTEX
  8
LAYER_1
 62
    20
  6
CONTINUOUS
 10
-0.872843
 20
-0.784870
  0
VERTEX
  8
LAYER_1
 62
    20
  6
CONTINUOUS
 10
-0.852969
 20
-0.788091
  0
VERTEX
  8
LAYER_1
 62
    20
  6
CONTINUOUS
 10
-0.835681
 20
-0.797052
  0
VERTEX
  8
LAYER_1
 62
    20
  6
CONTINUOUS
 10
-0.822030
 20
-0.810702
  0
VERTEX
  8
LAYER_1
 62
    20
  6
CONTINUOUS
 10
-0.813070
 20
-0.827989
  0
VERTEX
  8
LAYER_1
 62
    20
  6
CONTINUOUS
 10
-0.809850
 20
-0.847862
  0
VERTEX
  8
LAYER_1
 62
    20
  6
CONTINUOUS
 10
-0.813071
 20
-0.867735
  0
VERTEX
  8
LAYER_1
 62
    20
  6
CONTINUOUS
 10
-0.822032
 20
-0.885023
  0
VERTEX
  8
LAYER_1
 62
    20
  6
CONTINUOUS
 10
-0.835682
 20
-0.898673
  0
VERTEX
  8
LAYER_1
 62
    20
  6
CONTINUOUS
 10
-0.852969
 20
-0.907634
  0
VERTEX
  8
LAYER_1
 62
    20
  6
CONTINUOUS
 10
-0.872843
 20
-0.910854
  0
VERTEX
  8
LAYER_1
 62
    20
  6
CONTINUOUS
 10
-0.892716
 20
-0.907634
  0
VERTEX
  8
LAYER_1
 62
    20
  6
CONTINUOUS
 10
-0.910003
 20
-0.898673
  0
VERTEX
  8
LAYER_1
 62
    20
  6
CONTINUOUS
 10
-0.923653
 20
-0.885023
  0
VERTEX
  8
LAYER_1
 62
    20
  6
CONTINUOUS
 10
-0.932614
 20
-0.867735
  0
SEQEND
  8
0
  0
POLYLINE
  8
LAYER_1
 62
    20
  6
CONTINUOUS
 66
     1
 40
0.003000
 41
0.003000
 70
     1
  0
VERTEX
  8
LAYER_1
 62
    20
  6
CONTINUOUS
 10
-0.065760
 20
0.888815
  0
VERTEX
  8
LAYER_1
 62
    20
  6
CONTINUOUS
 10
-0.065760
 20
0.846441
  0
VERTEX
  8
LAYER_1
 62
    20
  6
CONTINUOUS
 10
-0.067070
 20
0.846466
  0
VERTEX
  8
LAYER_1
 62
    20
  6
CONTINUOUS
 10
-0.068380
 20
0.846480
  0
VERTEX
  8
LAYER_1
 62
    20
  6
CONTINUOUS
 10
-0.069693
 20
0.846484
  0
VERTEX
  8
LAYER_1
 62
    20
  6
CONTINUOUS
 10
-0.087240
 20
0.845534
  0
VERTEX
  8
LAYER_1
 62
    20
  6
CONTINUOUS
 10
-0.104249
 20
0.842750
  0
VERTEX
  8
LAYER_1
 62
    20
  6
CONTINUOUS
 10
-0.120622
 20
0.838232
  0
VERTEX
  8
LAYER_1
 62
    20
  6
CONTINUOUS
 10
-0.136258
 20
0.832079
  0
VERTEX
  8
LAYER_1
 62
    20
  6
CONTINUOUS
 10
-0.151058
 20
0.824392
  0
VERTEX
  8
LAYER_1
 62
    20
  6
CONTINUOUS
 10
-0.164922
 20
0.815270
  0
VERTEX
  8
LAYER_1
 62
    20
  6
CONTINUOUS
 10
-0.177750
 20
0.804813
  0
VERTEX
  8
LAYER_1
 62
    20
  6
CONTINUOUS
 10
-0.189443
 20
0.793121
  0
VERTEX
  8
LAYER_1
 62
    20
  6
CONTINUOUS
 10
-0.199900
 20
0.780293
  0
VERTEX
  8
LAYER_1
 62
    20
  6
CONTINUOUS
 10
-0.209022
 20
0.766429
  0
VERTEX
  8
LAYER_1
 62
    20
  6
CONTINUOUS
 10
-0.216709
 20
0.751630
  0
VERTEX
  8
LAYER_1
 62
    20
  6
CONTINUOUS
 10
-0.222862
 20
0.735994
  0
VERTEX
  8
LAYER_1
 62
    20
  6
CONTINUOUS
 10
-0.227380
 20
0.719622
  0
VERTEX
  8
LAYER_1
 62
    20
  6
CONTINUOUS
 10
-0.230164
 20
0.702613
  0
VERTEX
  8
LAYER_1
 62
    20
  6
CONTINUOUS
 10
-0.231114
 20
0.685067
  0
VERTEX
  8
LAYER_1
 62
    20
  6
CONTINUOUS
 10
-0.230164
 20
0.667521
  0
VERTEX
  8
LAYER_1
 62
    20
  6
CONTINUOUS
 10
-0.227380
 20
0.650512
  0
VERTEX
  8
LAYER_1
 62
    20
  6
CONTINUOUS
 10
-0.222862
 20
0.634140
  0
VERTEX
  8
LAYER_1
 62
    20
  6
CONTINUOUS
 10
-0.216709
 20
0.618504
  0
VERTEX
  8
LAYER_1
 62
    20
  6
CONTINUOUS
 10
-0.209022
 20
0.603704
  0
VERTEX
  8
LAYER_1
 62
    20
  6
CONTINUOUS
 10
-0.199900
 20
0.589841
  0
VERTEX
  8
LAYER_1
 62
    20
  6
CONTINUOUS
 10
-0.189443
 20
0.577013
  0
VERTEX
  8
LAYER_1
 62
    20
  6
CONTINUOUS
 10
-0.177750
 20
0.565321
  0
VERTEX
  8
LAYER_1
 62
    20
  6
CONTINUOUS
 10
-0.164922
 20
0.554864
  0
VERTEX
  8
LAYER_1
 62
    20
  6
CONTINUOUS
 10
-0.151058
 20
0.545742
  0
VERTEX
  8
LAYER_1
 62
    20
  6
CONTINUOUS
 10
-0.136258
 20
0.538055
  0
VERTEX
  8
LAYER_1
 62
    20
  6
CONTINUOUS
 10
-0.120622
 20
0.531902
  0
VERTEX
  8
LAYER_1
 62
    20
  6
CONTINUOUS
 10
-0.104249
 20
0.527384
  0
VERTEX
  8
LAYER_1
 62
    20
  6
CONTINUOUS
 10
-0.087240
 20
0.524600
  0
VERTEX
  8
LAYER_1
 62
    20
  6
CONTINUOUS
 10
-0.069693
 20
0.523650
  0
VERTEX
  8
LAYER_1
 62
    20
  6
CONTINUOUS
 10
-0.068380
 20
0.523656
  0
VERTEX
  8
LAYER_1
 62
    20
  6
CONTINUOUS
 10
-0.067070
 20
0.523674
  0
VERTEX
  8
LAYER_1
 62
    20
  6
CONTINUOUS
 10
-0.065760
 20
0.523701
  0
VERTEX
  8
LAYER_1
 62
    20
  6
CONTINUOUS
 10
-0.065760
 20
0.481319
  0
VERTEX
  8
LAYER_1
 62
    20
  6
CONTINUOUS
 10
-0.484827
 20
0.429161
  0
VERTEX
  8
LAYER_1
 62
    20
  6
CONTINUOUS
 10
-0.484827
 20
0.232311
  0
VERTEX
  8
LAYER_1
 62
    20
  6
CONTINUOUS
 10
-0.656311
 20
0.232311
  0
VERTEX
  8
LAYER_1
 62
    20
  6
CONTINUOUS
 10
-0.656311
 20
0.277228
  0
VERTEX
  8
LAYER_1
 62
    20
  6
CONTINUOUS
 10
-0.655149
 20
0.277169
  0
VERTEX
  8
LAYER_1
 62
    20
  6
CONTINUOUS
 10
-0.653984
 20
0.277129
  0
VERTEX
  8
LAYER_1
 62
    20
  6
CONTINUOUS
 10
-0.652811
 20
0.277114
  0
VERTEX
  8
LAYER_1
 62
    20
  6
CONTINUOUS
 10
-0.634179
 20
0.280133
  0
VERTEX
  8
LAYER_1
 62
    20
  6
CONTINUOUS
 10
-0.617972
 20
0.288534
  0
VERTEX
  8
LAYER_1
 62
    20
  6
CONTINUOUS
 10
-0.605175
 20
0.301330
  0
VERTEX
  8
LAYER_1
 62
    20
  6
CONTINUOUS
 10
-0.596775
 20
0.317537
  0
VERTEX
  8
LAYER_1
 62
    20
  6
CONTINUOUS
 10
-0.593756
 20
0.336169
  0
VERTEX
  8
LAYER_1
 62
    20
  6
CONTINUOUS
 10
-0.596775
 20
0.354802
  0
VERTEX
  8
LAYER_1
 62
    20
  6
CONTINUOUS
 10
-0.605175
 20
0.371009
  0
VERTEX
  8
LAYER_1
 62
    20
  6
CONTINUOUS
 10
-0.617972
 20
0.383805
  0
VERTEX
  8
LAYER_1
 62
    20
  6
CONTINUOUS
 10
-0.634179
 20
0.392205
  0
VERTEX
  8
LAYER_1
 62
    20
  6
CONTINUOUS
 10
-0.652811
 20
0.395224
  0
VERTEX
  8
LAYER_1
 62
    20
  6
CONTINUOUS
 10
-0.653984
 20
0.395213
  0
VERTEX
  8
LAYER_1
 62
    20
  6
CONTINUOUS
 10
-0.655149
 20
0.395178
  0
VERTEX
  8
LAYER_1
 62
    20
  6
CONTINUOUS
 10
-0.656311
 20
0.395122
  0
VERTEX
  8
LAYER_1
 62
    20
  6
CONTINUOUS
 10
-0.656311
 20
0.975024
  0
VERTEX
  8
LAYER_1
 62
    20
  6
CONTINUOUS
 10
-0.655149
 20
0.974964
  0
VERTEX
  8
LAYER_1
 62
    20
  6
CONTINUOUS
 10
-0.653984
 20
0.974924
  0
VERTEX
  8
LAYER_1
 62
    20
  6
CONTINUOUS
 10
-0.652811
 20
0.974909
  0
VERTEX
  8
LAYER_1
 62
    20
  6
CONTINUOUS
 10
-0.634179
 20
0.977929
  0
VERTEX
  8
LAYER_1
 62
    20
  6
CONTINUOUS
 10
-0.617972
 20
0.986329
  0
VERTEX
  8
LAYER_1
 62
    20
  6
CONTINUOUS
 10
-0.605175
 20
0.999125
  0
VERTEX
  8
LAYER_1
 62
    20
  6
CONTINUOUS
 10
-0.596775
 20
1.015332
  0
VERTEX
  8
LAYER_1
 62
    20
  6
CONTINUOUS
 10
-0.593756
 20
1.033965
  0
VERTEX
  8
LAYER_1
 62
    20
  6
CONTINUOUS
 10
-0.596775
 20
1.052597
  0
VERTEX
  8
LAYER_1
 62
    20
  6
CONTINUOUS
 10
-0.605175
 20
1.068804
  0
VERTEX
  8
LAYER_1
 62
    20
  6
CONTINUOUS
 10
-0.617972
 20
1.081600
  0
VERTEX
  8
LAYER_1
 62
    20
  6
CONTINUOUS
 10
-0.634179
 20
1.090001
  0
VERTEX
  8
LAYER_1
 62
    20
  6
CONTINUOUS
 10
-0.652811
 20
1.093020
  0
VERTEX
  8
LAYER_1
 62
    20
  6
CONTINUOUS
 10
-0.653984
 20
1.093008
  0
VERTEX
  8
LAYER_1
 62
    20
  6
CONTINUOUS
 10
-0.655149
 20
1.092974
  0
VERTEX
  8
LAYER_1
 62
    20
  6
CONTINUOUS
 10
-0.656311
 20
1.092917
  0
VERTEX
  8
LAYER_1
 62
    20
  6
CONTINUOUS
 10
-0.656311
 20
1.137823
  0
VERTEX
  8
LAYER_1
 62
    20
  6
CONTINUOUS
 10
-0.484827
 20
1.137823
  0
VERTEX
  8
LAYER_1
 62
    20
  6
CONTINUOUS
 10
-0.484827
 20
0.940972
  0
SEQEND
  8
0
  0
POLYLINE
  8
LAYER_1
 62
    20
  6
CONTINUOUS
 66
     1
 40
0.003000
 41
0.003000
 70
     1
  0
VERTEX
  8
LAYER_1
 62
    20
  6
CONTINUOUS
 10
-0.376783
 20
0.685067
  0
VERTEX
  8
LAYER_1
 62
    20
  6
CONTINUOUS
 10
-0.380004
 20
0.665194
  0
VERTEX
  8
LAYER_1
 62
    20
  6
CONTINUOUS
 10
-0.388965
 20
0.647906
  0
VERTEX
  8
LAYER_1
 62
    20
  6
CONTINUOUS
 10
-0.402615
 20
0.634256
  0
VERTEX
  8
LAYER_1
 62
    20
  6
CONTINUOUS
 10
-0.419902
 20
0.625295
  0
VERTEX
  8
LAYER_1
 62
    20
  6
CONTINUOUS
 10
-0.439776
 20
0.622075
  0
VERTEX
  8
LAYER_1
 62
    20
  6
CONTINUOUS
 10
-0.459649
 20
0.625295
  0
VERTEX
  8
LAYER_1
 62
    20
  6
CONTINUOUS
 10
-0.476936
 20
0.634256
  0
VERTEX
  8
LAYER_1
 62
    20
  6
CONTINUOUS
 10
-0.490586
 20
0.647906
  0
VERTEX
  8
LAYER_1
 62
    20
  6
CONTINUOUS
 10
-0.499547
 20
0.665194
  0
VERTEX
  8
LAYER_1
 62
    20
  6
CONTINUOUS
 10
-0.502768
 20
0.685067
  0
VERTEX
  8
LAYER_1
 62
    20
  6
CONTINUOUS
 10
-0.499547
 20
0.704940
  0
VERTEX
  8
LAYER_1
 62
    20
  6
CONTINUOUS
 10
-0.490586
 20
0.722227
  0
VERTEX
  8
LAYER_1
 62
    20
  6
CONTINUOUS
 10
-0.476936
 20
0.735877
  0
VERTEX
  8
LAYER_1
 62
    20
  6
CONTINUOUS
 10
-0.459649
 20
0.744838
  0
VERTEX
  8
LAYER_1
 62
    20
  6
CONTINUOUS
 10
-0.439776
 20
0.748059
  0
VERTEX
  8
LAYER_1
 62
    20
  6
CONTINUOUS
 10
-0.419902
 20
0.744838
  0
VERTEX
  8
LAYER_1
 62
    20
  6
CONTINUOUS
 10
-0.402615
 20
0.735877
  0
VERTEX
  8
LAYER_1
 62
    20
  6
CONTINUOUS
 10
-0.388965
 20
0.722227
  0
VERTEX
  8
LAYER_1
 62
    20
  6
CONTINUOUS
 10
-0.380004
 20
0.704940
  0
SEQEND
  8
0
  0
POLYLINE
  8
LAYER_1
 62
    20
  6
CONTINUOUS
 66
     1
 40
0.003000
 41
0.003000
 70
     1
  0
VERTEX
  8
LAYER_1
 62
    20
  6
CONTINUOUS
 10
1.245106
 20
0.026720
  0
VERTEX
  8
LAYER_1
 62
    20
  6
CONTINUOUS
 10
1.245106
 20
-0.032969
  0
VERTEX
  8
LAYER_1
 62
    20
  6
CONTINUOUS
 10
1.243798
 20
-0.032936
  0
VERTEX
  8
LAYER_1
 62
    20
  6
CONTINUOUS
 10
1.242487
 20
-0.032916
  0
VERTEX
  8
LAYER_1
 62
    20
  6
CONTINUOUS
 10
1.241173
 20
-0.032909
  0
VERTEX
  8
LAYER_1
 62
    20
  6
CONTINUOUS
 10
1.223317
 20
-0.034117
  0
VERTEX
  8
LAYER_1
 62
    20
  6
CONTINUOUS
 10
1.206179
 20
-0.037634
  0
VERTEX
  8
LAYER_1
 62
    20
  6
CONTINUOUS
 10
1.189917
 20
-0.043302
  0
VERTEX
  8
LAYER_1
 62
    20
  6
CONTINUOUS
 10
1.174692
 20
-0.050960
  0
VERTEX
  8
LAYER_1
 62
    20
  6
CONTINUOUS
 10
1.160661
 20
-0.060451
  0
VERTEX
  8
LAYER_1
 62
    20
  6
CONTINUOUS
 10
1.147984
 20
-0.071614
  0
VERTEX
  8
LAYER_1
 62
    20
  6
CONTINUOUS
 10
1.136821
 20
-0.084290
  0
VERTEX
  8
LAYER_1
 62
    20
  6
CONTINUOUS
 10
1.127331
 20
-0.098320
  0
VERTEX
  8
LAYER_1
 62
    20
  6
CONTINUOUS
 10
1.119672
 20
-0.113546
  0
VERTEX
  8
LAYER_1
 62
    20
  6
CONTINUOUS
 10
1.114005
 20
-0.129807
  0
VERTEX
  8
LAYER_1
 62
    20
  6
CONTINUOUS
 10
1.110487
 20
-0.146944
  0
VERTEX
  8
LAYER_1
 62
    20
  6
CONTINUOUS
 10
1.109280
 20
-0.164799
  0
VERTEX
  8
LAYER_1
 62
    20
  6
CONTINUOUS
 10
1.110487
 20
-0.182654
  0
VERTEX
  8
LAYER_1
 62
    20
  6
CONTINUOUS
 10
1.114005
 20
-0.199792
  0
VERTEX
  8
LAYER_1
 62
    20
  6
CONTINUOUS
 10
1.119672
 20
-0.216053
  0
VERTEX
  8
LAYER_1
 62
    20
  6
CONTINUOUS
 10
1.127331
 20
-0.231278
  0
VERTEX
  8
LAYER_1
 62
    20
  6
CONTINUOUS
 10
1.136821
 20
-0.245308
  0
VERTEX
  8
LAYER_1
 62
    20
  6
CONTINUOUS
 10
1.147984
 20
-0.257985
  0
VERTEX
  8
LAYER_1
 62
    20
  6
CONTINUOUS
 10
1.160661
 20
-0.269148
  0
VERTEX
  8
LAYER_1
 62
    20
  6
CONTINUOUS
 10
1.174692
 20
-0.278638
  0
VERTEX
  8
LAYER_1
 62
    20
  6
CONTINUOUS
 10
1.189917
 20
-0.286296
  0
VERTEX
  8
LAYER_1
 62
    20
  6
CONTINUOUS
 10
1.206179
 20
-0.291964
  0
VERTEX
  8
LAYER_1
 62
    20
  6
CONTINUOUS
 10
1.223317
 20
-0.295481
  0
VERTEX
  8
LAYER_1
 62
    20
  6
CONTINUOUS
 10
1.241173
 20
-0.296689
  0
VERTEX
  8
LAYER_1
 62
    20
  6
CONTINUOUS
 10
1.242487
 20
-0.296680
  0
VERTEX
  8
LAYER_1
 62
    20
  6
CONTINUOUS
 10
1.243798
 20
-0.296657
  0
VERTEX
  8
LAYER_1
 62
    20
  6
CONTINUOUS
 10
1.245106
 20
-0.296622
  0
VERTEX
  8
LAYER_1
 62
    20
  6
CONTINUOUS
 10
1.245106
 20
-0.361626
  0
VERTEX
  8
LAYER_1
 62
    20
  6
CONTINUOUS
 10
0.658055
 20
-0.454642
  0
VERTEX
  8
LAYER_1
 62
    20
  6
CONTINUOUS
 10
0.656883
 20
-0.454653
  0
VERTEX
  8
LAYER_1
 62
    20
  6
CONTINUOUS
 10
0.655717
 20
-0.454688
  0
VERTEX
  8
LAYER_1
 62
    20
  6
CONTINUOUS
 10
0.654555
 20
-0.454744
  0
VERTEX
  8
LAYER_1
 62
    20
  6
CONTINUOUS
 10
0.654555
 20
0.125157
  0
VERTEX
  8
LAYER_1
 62
    20
  6
CONTINUOUS
 10
0.655717
 20
0.125098
  0
VERTEX
  8
LAYER_1
 62
    20
  6
CONTINUOUS
 10
0.656883
 20
0.125058
  0
VERTEX
  8
LAYER_1
 62
    20
  6
CONTINUOUS
 10
0.658055
 20
0.125043
  0
SEQEND
  8
0
  0
POLYLINE
  8
LAYER_1
 62
    20
  6
CONTINUOUS
 66
     1
 40
0.003000
 41
0.003000
 70
     1
  0
VERTEX
  8
LAYER_1
 62
    20
  6
CONTINUOUS
 10
0.953768
 20
-0.164799
  0
VERTEX
  8
LAYER_1
 62
    20
  6
CONTINUOUS
 10
0.950547
 20
-0.184672
  0
VERTEX
  8
LAYER_1
 62
    20
  6
CONTINUOUS
 10
0.941586
 20
-0.201960
  0
VERTEX
  8
LAYER_1
 62
    20
  6
CONTINUOUS
 10
0.927936
 20
-0.215610
  0
VERTEX
  8
LAYER_1
 62
    20
  6
CONTINUOUS
 10
0.910649
 20
-0.224571
  0
VERTEX
  8
LAYER_1
 62
    20
  6
CONTINUOUS
 10
0.890776
 20
-0.227791
  0
VERTEX
  8
LAYER_1
 62
    20
  6
CONTINUOUS
 10
0.870902
 20
-0.224571
  0
VERTEX
  8
LAYER_1
 62
    20
  6
CONTINUOUS
 10
0.853615
 20
-0.215610
  0
VERTEX
  8
LAYER_1
 62
    20
  6
CONTINUOUS
 10
0.839965
 20
-0.201960
  0
VERTEX
  8
LAYER_1
 62
    20
  6
CONTINUOUS
 10
0.831004
 20
-0.184672
  0
VERTEX
  8
LAYER_1
 62
    20
  6
CONTINUOUS
 10
0.827783
 20
-0.164799
  0
VERTEX
  8
LAYER_1
 62
    20
  6
CONTINUOUS
 10
0.831004
 20
-0.144926
  0
VERTEX
  8
LAYER_1
 62
    20
  6
CONTINUOUS
 10
0.839965
 20
-0.127639
  0
VERTEX
  8
LAYER_1
 62
    20
  6
CONTINUOUS
 10
0.853615
 20
-0.113989
  0
VERTEX
  8
LAYER_1
 62
    20
  6
CONTINUOUS
 10
0.870902
 20
-0.105028
  0
VERTEX
  8
LAYER_1
 62
    20
  6
CONTINUOUS
 10
0.890776
 20
-0.101807
  0
VERTEX
  8
LAYER_1
 62
    20
  6
CONTINUOUS
 10
0.910649
 20
-0.105028
  0
VERTEX
  8
LAYER_1
 62
    20
  6
CONTINUOUS
 10
0.927936
 20
-0.113989
  0
VERTEX
  8
LAYER_1
 62
    20
  6
CONTINUOUS
 10
0.941586
 20
-0.127639
  0
VERTEX
  8
LAYER_1
 62
    20
  6
CONTINUOUS
 10
0.950547
 20
-0.144926
  0
SEQEND
  8
0
  0
POLYLINE
  8
LAYER_1
 62
    20
  6
CONTINUOUS
 66
     1
 40
0.003000
 41
0.003000
 70
     1
  0
VERTEX
  8
LAYER_1
 62
    20
  6
CONTINUOUS
 10
0.064004
 20
0.026720
  0
VERTEX
  8
LAYER_1
 62
    20
  6
CONTINUOUS
 10
0.064004
 20
-0.032969
  0
VERTEX
  8
LAYER_1
 62
    20
  6
CONTINUOUS
 10
0.065312
 20
-0.032936
  0
VERTEX
  8
LAYER_1
 62
    20
  6
CONTINUOUS
 10
0.066623
 20
-0.032916
  0
VERTEX
  8
LAYER_1
 62
    20
  6
CONTINUOUS
 10
0.067937
 20
-0.032909
  0
VERTEX
  8
LAYER_1
 62
    20
  6
CONTINUOUS
 10
0.085793
 20
-0.034117
  0
VERTEX
  8
LAYER_1
 62
    20
  6
CONTINUOUS
 10
0.102931
 20
-0.037634
  0
VERTEX
  8
LAYER_1
 62
    20
  6
CONTINUOUS
 10
0.119193
 20
-0.043302
  0
VERTEX
  8
LAYER_1
 62
    20
  6
CONTINUOUS
 10
0.134419
 20
-0.050960
  0
VERTEX
  8
LAYER_1
 62
    20
  6
CONTINUOUS
 10
0.148449
 20
-0.060451
  0
VERTEX
  8
LAYER_1
 62
    20
  6
CONTINUOUS
 10
0.161126
 20
-0.071614
  0
VERTEX
  8
LAYER_1
 62
    20
  6
CONTINUOUS
 10
0.172289
 20
-0.084290
  0
VERTEX
  8
LAYER_1
 62
    20
  6
CONTINUOUS
 10
0.181780
 20
-0.098320
  0
VERTEX
  8
LAYER_1
 62
    20
  6
CONTINUOUS
 10
0.189438
 20
-0.113546
  0
VERTEX
  8
LAYER_1
 62
    20
  6
CONTINUOUS
 10
0.195106
 20
-0.129807
  0
VERTEX
  8
LAYER_1
 62
    20
  6
CONTINUOUS
 10
0.198623
 20
-0.146944
  0
VERTEX
  8
LAYER_1
 62
    20
  6
CONTINUOUS
 10
0.199831
 20
-0.164799
  0
VERTEX
  8
LAYER_1
 62
    20
  6
CONTINUOUS
 10
0.198623
 20
-0.182654
  0
VERTEX
  8
LAYER_1
 62
    20
  6
CONTINUOUS
 10
0.195106
 20
-0.199792
  0
VERTEX
  8
LAYER_1
 62
    20
  6
CONTINUOUS
 10
0.189438
 20
-0.216053
  0
VERTEX
  8
LAYER_1
 62
    20
  6
CONTINUOUS
 10
0.181780
 20
-0.231278
  0
VERTEX
  8
LAYER_1
 62
    20
  6
CONTINUOUS
 10
0.172289
 20
-0.245308
  0
VERTEX
  8
LAYER_1
 62
    20
  6
CONTINUOUS
 10
0.161126
 20
-0.257985
  0
VERTEX
  8
LAYER_1
 62
    20
  6
CONTINUOUS
 10
0.148449
 20
-0.269148
  0
VERTEX
  8
LAYER_1
 62
    20
  6
CONTINUOUS
 10
0.134419
 20
-0.278638
  0
VERTEX
  8
LAYER_1
 62
    20
  6
CONTINUOUS
 10
0.119193
 20
-0.286296
  0
VERTEX
  8
LAYER_1
 62
    20
  6
CONTINUOUS
 10
0.102931
 20
-0.291964
  0
VERTEX
  8
LAYER_1
 62
    20
  6
CONTINUOUS
 10
0.085793
 20
-0.295481
  0
VERTEX
  8
LAYER_1
 62
    20
  6
CONTINUOUS
 10
0.067937
 20
-0.296689
  0
VERTEX
  8
LAYER_1
 62
    20
  6
CONTINUOUS
 10
0.066623
 20
-0.296680
  0
VERTEX
  8
LAYER_1
 62
    20
  6
CONTINUOUS
 10
0.065312
 20
-0.296657
  0
VERTEX
  8
LAYER_1
 62
    20
  6
CONTINUOUS
 10
0.064004
 20
-0.296622
  0
VERTEX
  8
LAYER_1
 62
    20
  6
CONTINUOUS
 10
0.064004
 20
-0.361626
  0
VERTEX
  8
LAYER_1
 62
    20
  6
CONTINUOUS
 10
0.651055
 20
-0.454642
  0
VERTEX
  8
LAYER_1
 62
    20
  6
CONTINUOUS
 10
0.652228
 20
-0.454653
  0
VERTEX
  8
LAYER_1
 62
    20
  6
CONTINUOUS
 10
0.653393
 20
-0.454688
  0
VERTEX
  8
LAYER_1
 62
    20
  6
CONTINUOUS
 10
0.654555
 20
-0.454744
  0
VERTEX
  8
LAYER_1
 62
    20
  6
CONTINUOUS
 10
0.654555
 20
0.125157
  0
VERTEX
  8
LAYER_1
 62
    20
  6
CONTINUOUS
 10
0.653393
 20
0.125098
  0
VERTEX
  8
LAYER_1
 62
    20
  6
CONTINUOUS
 10
0.652228
 20
0.125058
  0
VERTEX
  8
LAYER_1
 62
    20
  6
CONTINUOUS
 10
0.651055
 20
0.125043
  0
SEQEND
  8
0
  0
POLYLINE
  8
LAYER_1
 62
    20
  6
CONTINUOUS
 66
     1
 40
0.003000
 41
0.003000
 70
     1
  0
VERTEX
  8
LAYER_1
 62
    20
  6
CONTINUOUS
 10
0.355343
 20
-0.164799
  0
VERTEX
  8
LAYER_1
 62
    20
  6
CONTINUOUS
 10
0.358563
 20
-0.184672
  0
VERTEX
  8
LAYER_1
 62
    20
  6
CONTINUOUS
 10
0.367524
 20
-0.201960
  0
VERTEX
  8
LAYER_1
 62
    20
  6
CONTINUOUS
 10
0.381174
 20
-0.215610
  0
VERTEX
  8
LAYER_1
 62
    20
  6
CONTINUOUS
 10
0.398461
 20
-0.224571
  0
VERTEX
  8
LAYER_1
 62
    20
  6
CONTINUOUS
 10
0.418335
 20
-0.227791
  0
VERTEX
  8
LAYER_1
 62
    20
  6
CONTINUOUS
 10
0.438208
 20
-0.224571
  0
VERTEX
  8
LAYER_1
 62
    20
  6
CONTINUOUS
 10
0.455495
 20
-0.215610
  0
VERTEX
  8
LAYER_1
 62
    20
  6
CONTINUOUS
 10
0.469145
 20
-0.201960
  0
VERTEX
  8
LAYER_1
 62
    20
  6
CONTINUOUS
 10
0.478106
 20
-0.184672
  0
VERTEX
  8
LAYER_1
 62
    20
  6
CONTINUOUS
 10
0.481327
 20
-0.164799
  0
VERTEX
  8
LAYER_1
 62
    20
  6
CONTINUOUS
 10
0.478106
 20
-0.144926
  0
VERTEX
  8
LAYER_1
 62
    20
  6
CONTINUOUS
 10
0.469145
 20
-0.127639
  0
VERTEX
  8
LAYER_1
 62
    20
  6
CONTINUOUS
 10
0.455495
 20
-0.113989
  0
VERTEX
  8
LAYER_1
 62
    20
  6
CONTINUOUS
 10
0.438208
 20
-0.105028
  0
VERTEX
  8
LAYER_1
 62
    20
  6
CONTINUOUS
 10
0.418335
 20
-0.101807
  0
VERTEX
  8
LAYER_1
 62
    20
  6
CONTINUOUS
 10
0.398461
 20
-0.105028
  0
VERTEX
  8
LAYER_1
 62
    20
  6
CONTINUOUS
 10
0.381174
 20
-0.113989
  0
VERTEX
  8
LAYER_1
 62
    20
  6
CONTINUOUS
 10
0.367524
 20
-0.127639
  0
VERTEX
  8
LAYER_1
 62
    20
  6
CONTINUOUS
 10
0.358563
 20
-0.144926
  0
SEQEND
  8
0
  0
POLYLINE
  8
LAYER_1
 62
    20
  6
CONTINUOUS
 66
     1
 40
0.003000
 41
0.003000
 70
     1
  0
VERTEX
  8
LAYER_1
 62
    20
  6
CONTINUOUS
 10
1.245106
 20
-0.654827
  0
VERTEX
  8
LAYER_1
 62
    20
  6
CONTINUOUS
 10
1.245106
 20
-0.714516
  0
VERTEX
  8
LAYER_1
 62
    20
  6
CONTINUOUS
 10
1.243798
 20
-0.714485
  0
VERTEX
  8
LAYER_1
 62
    20
  6
CONTINUOUS
 10
1.242487
 20
-0.714463
  0
VERTEX
  8
LAYER_1
 62
    20
  6
CONTINUOUS
 10
1.241173
 20
-0.714453
  0
VERTEX
  8
LAYER_1
 62
    20
  6
CONTINUOUS
 10
1.223318
 20
-0.715661
  0
VERTEX
  8
LAYER_1
 62
    20
  6
CONTINUOUS
 10
1.206181
 20
-0.719179
  0
VERTEX
  8
LAYER_1
 62
    20
  6
CONTINUOUS
 10
1.189919
 20
-0.724848
  0
VERTEX
  8
LAYER_1
 62
    20
  6
CONTINUOUS
 10
1.174693
 20
-0.732507
  0
VERTEX
  8
LAYER_1
 62
    20
  6
CONTINUOUS
 10
1.160662
 20
-0.741997
  0
VERTEX
  8
LAYER_1
 62
    20
  6
CONTINUOUS
 10
1.147986
 20
-0.753160
  0
VERTEX
  8
LAYER_1
 62
    20
  6
CONTINUOUS
 10
1.136822
 20
-0.765837
  0
VERTEX
  8
LAYER_1
 62
    20
  6
CONTINUOUS
 10
1.127332
 20
-0.779867
  0
VERTEX
  8
LAYER_1
 62
    20
  6
CONTINUOUS
 10
1.119673
 20
-0.795093
  0
VERTEX
  8
LAYER_1
 62
    20
  6
CONTINUOUS
 10
1.114005
 20
-0.811354
  0
VERTEX
  8
LAYER_1
 62
    20
  6
CONTINUOUS
 10
1.110487
 20
-0.828492
  0
VERTEX
  8
LAYER_1
 62
    20
  6
CONTINUOUS
 10
1.109280
 20
-0.846346
  0
VERTEX
  8
LAYER_1
 62
    20
  6
CONTINUOUS
 10
1.110487
 20
-0.864201
  0
VERTEX
  8
LAYER_1
 62
    20
  6
CONTINUOUS
 10
1.114005
 20
-0.881339
  0
VERTEX
  8
LAYER_1
 62
    20
  6
CONTINUOUS
 10
1.119673
 20
-0.897600
  0
VERTEX
  8
LAYER_1
 62
    20
  6
CONTINUOUS
 10
1.127332
 20
-0.912825
  0
VERTEX
  8
LAYER_1
 62
    20
  6
CONTINUOUS
 10
1.136822
 20
-0.926856
  0
VERTEX
  8
LAYER_1
 62
    20
  6
CONTINUOUS
 10
1.147986
 20
-0.939532
  0
VERTEX
  8
LAYER_1
 62
    20
  6
CONTINUOUS
 10
1.160662
 20
-0.950695
  0
VERTEX
  8
LAYER_1
 62
    20
  6
CONTINUOUS
 10
1.174693
 20
-0.960185
  0
VERTEX
  8
LAYER_1
 62
    20
  6
CONTINUOUS
 10
1.189919
 20
-0.967844
  0
VERTEX
  8
LAYER_1
 62
    20
  6
CONTINUOUS
 10
1.206181
 20
-0.973511
  0
VERTEX
  8
LAYER_1
 62
    20
  6
CONTINUOUS
 10
1.223318
 20
-0.977028
  0
VERTEX
  8
LAYER_1
 62
    20
  6
CONTINUOUS
 10
1.241173
 20
-0.978236
  0
VERTEX
  8
LAYER_1
 62
    20
  6
CONTINUOUS
 10
1.242487
 20
-0.978226
  0
VERTEX
  8
LAYER_1
 62
    20
  6
CONTINUOUS
 10
1.243798
 20
-0.978203
  0
VERTEX
  8
LAYER_1
 62
    20
  6
CONTINUOUS
 10
1.245106
 20
-0.978169
  0
VERTEX
  8
LAYER_1
 62
    20
  6
CONTINUOUS
 10
1.245106
 20
-1.043173
  0
VERTEX
  8
LAYER_1
 62
    20
  6
CONTINUOUS
 10
0.658051
 20
-1.136189
  0
VERTEX
  8
LAYER_1
 62
    20
  6
CONTINUOUS
 10
0.656881
 20
-1.136200
  0
VERTEX
  8
LAYER_1
 62
    20
  6
CONTINUOUS
 10
0.655716
 20
-1.136234
  0
VERTEX
  8
LAYER_1
 62
    20
  6
CONTINUOUS
 10
0.654551
 20
-1.136287
  0
VERTEX
  8
LAYER_1
 62
    20
  6
CONTINUOUS
 10
0.654555
 20
-0.556390
  0
VERTEX
  8
LAYER_1
 62
    20
  6
CONTINUOUS
 10
0.655717
 20
-0.556449
  0
VERTEX
  8
LAYER_1
 62
    20
  6
CONTINUOUS
 10
0.656883
 20
-0.556489
  0
VERTEX
  8
LAYER_1
 62
    20
  6
CONTINUOUS
 10
0.658055
 20
-0.556504
  0
SEQEND
  8
0
  0
POLYLINE
  8
LAYER_1
 62
    20
  6
CONTINUOUS
 66
     1
 40
0.003000
 41
0.003000
 70
     1
  0
VERTEX
  8
LAYER_1
 62
    20
  6
CONTINUOUS
 10
0.953768
 20
-0.846350
  0
VERTEX
  8
LAYER_1
 62
    20
  6
CONTINUOUS
 10
0.950547
 20
-0.866220
  0
VERTEX
  8
LAYER_1
 62
    20
  6
CONTINUOUS
 10
0.941586
 20
-0.883505
  0
VERTEX
  8
LAYER_1
 62
    20
  6
CONTINUOUS
 10
0.927936
 20
-0.897154
  0
VERTEX
  8
LAYER_1
 62
    20
  6
CONTINUOUS
 10
0.910649
 20
-0.906116
  0
VERTEX
  8
LAYER_1
 62
    20
  6
CONTINUOUS
 10
0.890776
 20
-0.909339
  0
VERTEX
  8
LAYER_1
 62
    20
  6
CONTINUOUS
 10
0.870904
 20
-0.906118
  0
VERTEX
  8
LAYER_1
 62
    20
  6
CONTINUOUS
 10
0.853618
 20
-0.897157
  0
VERTEX
  8
LAYER_1
 62
    20
  6
CONTINUOUS
 10
0.839968
 20
-0.883507
  0
VERTEX
  8
LAYER_1
 62
    20
  6
CONTINUOUS
 10
0.831006
 20
-0.866220
  0
VERTEX
  8
LAYER_1
 62
    20
  6
CONTINUOUS
 10
0.827783
 20
-0.846346
  0
VERTEX
  8
LAYER_1
 62
    20
  6
CONTINUOUS
 10
0.831004
 20
-0.826475
  0
VERTEX
  8
LAYER_1
 62
    20
  6
CONTINUOUS
 10
0.839966
 20
-0.809188
  0
VERTEX
  8
LAYER_1
 62
    20
  6
CONTINUOUS
 10
0.853616
 20
-0.795537
  0
VERTEX
  8
LAYER_1
 62
    20
  6
CONTINUOUS
 10
0.870902
 20
-0.786575
  0
VERTEX
  8
LAYER_1
 62
    20
  6
CONTINUOUS
 10
0.890772
 20
-0.783354
  0
VERTEX
  8
LAYER_1
 62
    20
  6
CONTINUOUS
 10
0.910645
 20
-0.786575
  0
VERTEX
  8
LAYER_1
 62
    20
  6
CONTINUOUS
 10
0.927932
 20
-0.795536
  0
VERTEX
  8
LAYER_1
 62
    20
  6
CONTINUOUS
 10
0.941583
 20
-0.809187
  0
VERTEX
  8
LAYER_1
 62
    20
  6
CONTINUOUS
 10
0.950545
 20
-0.826475
  0
SEQEND
  8
0
  0
POLYLINE
  8
LAYER_1
 62
    20
  6
CONTINUOUS
 66
     1
 40
0.003000
 41
0.003000
 70
     1
  0
VERTEX
  8
LAYER_1
 62
    20
  6
CONTINUOUS
 10
0.064004
 20
-0.654827
  0
VERTEX
  8
LAYER_1
 62
    20
  6
CONTINUOUS
 10
0.064004
 20
-0.714516
  0
VERTEX
  8
LAYER_1
 62
    20
  6
CONTINUOUS
 10
0.065313
 20
-0.714485
  0
VERTEX
  8
LAYER_1
 62
    20
  6
CONTINUOUS
 10
0.066625
 20
-0.714464
  0
VERTEX
  8
LAYER_1
 62
    20
  6
CONTINUOUS
 10
0.067937
 20
-0.714457
  0
VERTEX
  8
LAYER_1
 62
    20
  6
CONTINUOUS
 10
0.085792
 20
-0.715664
  0
VERTEX
  8
LAYER_1
 62
    20
  6
CONTINUOUS
 10
0.102930
 20
-0.719182
  0
VERTEX
  8
LAYER_1
 62
    20
  6
CONTINUOUS
 10
0.119191
 20
-0.724849
  0
VERTEX
  8
LAYER_1
 62
    20
  6
CONTINUOUS
 10
0.134417
 20
-0.732508
  0
VERTEX
  8
LAYER_1
 62
    20
  6
CONTINUOUS
 10
0.148448
 20
-0.741998
  0
VERTEX
  8
LAYER_1
 62
    20
  6
CONTINUOUS
 10
0.161125
 20
-0.753161
  0
VERTEX
  8
LAYER_1
 62
    20
  6
CONTINUOUS
 10
0.172289
 20
-0.765838
  0
VERTEX
  8
LAYER_1
 62
    20
  6
CONTINUOUS
 10
0.181780
 20
-0.779869
  0
VERTEX
  8
LAYER_1
 62
    20
  6
CONTINUOUS
 10
0.189439
 20
-0.795095
  0
VERTEX
  8
LAYER_1
 62
    20
  6
CONTINUOUS
 10
0.195108
 20
-0.811356
  0
VERTEX
  8
LAYER_1
 62
    20
  6
CONTINUOUS
 10
0.198626
 20
-0.828495
  0
VERTEX
  8
LAYER_1
 62
    20
  6
CONTINUOUS
 10
0.199835
 20
-0.846350
  0
VERTEX
  8
LAYER_1
 62
    20
  6
CONTINUOUS
 10
0.198627
 20
-0.864205
  0
VERTEX
  8
LAYER_1
 62
    20
  6
CONTINUOUS
 10
0.195109
 20
-0.881343
  0
VERTEX
  8
LAYER_1
 62
    20
  6
CONTINUOUS
 10
0.189441
 20
-0.897604
  0
VERTEX
  8
LAYER_1
 62
    20
  6
CONTINUOUS
 10
0.181782
 20
-0.912829
  0
VERTEX
  8
LAYER_1
 62
    20
  6
CONTINUOUS
 10
0.172292
 20
-0.926859
  0
VERTEX
  8
LAYER_1
 62
    20
  6
CONTINUOUS
 10
0.161128
 20
-0.939535
  0
VERTEX
  8
LAYER_1
 62
    20
  6
CONTINUOUS
 10
0.148451
 20
-0.950698
  0
VERTEX
  8
LAYER_1
 62
    20
  6
CONTINUOUS
 10
0.134420
 20
-0.960188
  0
VERTEX
  8
LAYER_1
 62
    20
  6
CONTINUOUS
 10
0.119193
 20
-0.967846
  0
VERTEX
  8
LAYER_1
 62
    20
  6
CONTINUOUS
 10
0.102931
 20
-0.973513
  0
VERTEX
  8
LAYER_1
 62
    20
  6
CONTINUOUS
 10
0.085793
 20
-0.977029
  0
VERTEX
  8
LAYER_1
 62
    20
  6
CONTINUOUS
 10
0.067937
 20
-0.978236
  0
VERTEX
  8
LAYER_1
 62
    20
  6
CONTINUOUS
 10
0.066625
 20
-0.978227
  0
VERTEX
  8
LAYER_1
 62
    20
  6
CONTINUOUS
 10
0.065313
 20
-0.978202
  0
VERTEX
  8
LAYER_1
 62
    20
  6
CONTINUOUS
 10
0.064004
 20
-0.978169
  0
VERTEX
  8
LAYER_1
 62
    20
  6
CONTINUOUS
 10
0.064000
 20
-1.043173
  0
VERTEX
  8
LAYER_1
 62
    20
  6
CONTINUOUS
 10
0.651059
 20
-1.136189
  0
VERTEX
  8
LAYER_1
 62
    20
  6
CONTINUOUS
 10
0.652229
 20
-1.136200
  0
VERTEX
  8
LAYER_1
 62
    20
  6
CONTINUOUS
 10
0.653392
 20
-1.136234
  0
VERTEX
  8
LAYER_1
 62
    20
  6
CONTINUOUS
 10
0.654551
 20
-1.136287
  0
VERTEX
  8
LAYER_1
 62
    20
  6
CONTINUOUS
 10
0.654555
 20
-0.556390
  0
VERTEX
  8
LAYER_1
 62
    20
  6
CONTINUOUS
 10
0.653396
 20
-0.556453
  0
VERTEX
  8
LAYER_1
 62
    20
  6
CONTINUOUS
 10
0.652230
 20
-0.556491
  0
VERTEX
  8
LAYER_1
 62
    20
  6
CONTINUOUS
 10
0.651055
 20
-0.556504
  0
SEQEND
  8
0
  0
POLYLINE
  8
LAYER_1
 62
    20
  6
CONTINUOUS
 66
     1
 40
0.003000
 41
0.003000
 70
     1
  0
VERTEX
  8
LAYER_1
 62
    20
  6
CONTINUOUS
 10
0.355343
 20
-0.846346
  0
VERTEX
  8
LAYER_1
 62
    20
  6
CONTINUOUS
 10
0.358565
 20
-0.866220
  0
VERTEX
  8
LAYER_1
 62
    20
  6
CONTINUOUS
 10
0.367527
 20
-0.883507
  0
VERTEX
  8
LAYER_1
 62
    20
  6
CONTINUOUS
 10
0.381178
 20
-0.897157
  0
VERTEX
  8
LAYER_1
 62
    20
  6
CONTINUOUS
 10
0.398465
 20
-0.906118
  0
VERTEX
  8
LAYER_1
 62
    20
  6
CONTINUOUS
 10
0.418339
 20
-0.909339
  0
VERTEX
  8
LAYER_1
 62
    20
  6
CONTINUOUS
 10
0.438210
 20
-0.906116
  0
VERTEX
  8
LAYER_1
 62
    20
  6
CONTINUOUS
 10
0.455496
 20
-0.897154
  0
VERTEX
  8
LAYER_1
 62
    20
  6
CONTINUOUS
 10
0.469146
 20
-0.883504
  0
VERTEX
  8
LAYER_1
 62
    20
  6
CONTINUOUS
 10
0.478108
 20
-0.866218
  0
VERTEX
  8
LAYER_1
 62
    20
  6
CONTINUOUS
 10
0.481331
 20
-0.846346
  0
VERTEX
  8
LAYER_1
 62
    20
  6
CONTINUOUS
 10
0.478108
 20
-0.826475
  0
VERTEX
  8
LAYER_1
 62
    20
  6
CONTINUOUS
 10
0.469145
 20
-0.809187
  0
VERTEX
  8
LAYER_1
 62
    20
  6
CONTINUOUS
 10
0.455494
 20
-0.795536
  0
VERTEX
  8
LAYER_1
 62
    20
  6
CONTINUOUS
 10
0.438206
 20
-0.786573
  0
VERTEX
  8
LAYER_1
 62
    20
  6
CONTINUOUS
 10
0.418335
 20
-0.783350
  0
VERTEX
  8
LAYER_1
 62
    20
  6
CONTINUOUS
 10
0.398461
 20
-0.786575
  0
VERTEX
  8
LAYER_1
 62
    20
  6
CONTINUOUS
 10
0.381174
 20
-0.795539
  0
VERTEX
  8
LAYER_1
 62
    20
  6
CONTINUOUS
 10
0.367524
 20
-0.809190
  0
VERTEX
  8
LAYER_1
 62
    20
  6
CONTINUOUS
 10
0.358563
 20
-0.826477
  0
SEQEND
  8
0
  0
POLYLINE
  8
LAYER_1
 62
    20
  6
CONTINUOUS
 66
     1
 40
0.003000
 41
0.003000
 70
     1
  0
VERTEX
  8
LAYER_1
 62
    20
  6
CONTINUOUS
 10
0.067362
 20
0.507437
  0
VERTEX
  8
LAYER_1
 62
    20
  6
CONTINUOUS
 10
0.067362
 20
0.536610
  0
VERTEX
  8
LAYER_1
 62
    20
  6
CONTINUOUS
 10
0.068671
 20
0.536577
  0
VERTEX
  8
LAYER_1
 62
    20
  6
CONTINUOUS
 10
0.069982
 20
0.536558
  0
VERTEX
  8
LAYER_1
 62
    20
  6
CONTINUOUS
 10
0.071295
 20
0.536551
  0
VERTEX
  8
LAYER_1
 62
    20
  6
CONTINUOUS
 10
0.089151
 20
0.537759
  0
VERTEX
  8
LAYER_1
 62
    20
  6
CONTINUOUS
 10
0.106289
 20
0.541276
  0
VERTEX
  8
LAYER_1
 62
    20
  6
CONTINUOUS
 10
0.122551
 20
0.546944
  0
VERTEX
  8
LAYER_1
 62
    20
  6
CONTINUOUS
 10
0.137777
 20
0.554602
  0
VERTEX
  8
LAYER_1
 62
    20
  6
CONTINUOUS
 10
0.151808
 20
0.564093
  0
VERTEX
  8
LAYER_1
 62
    20
  6
CONTINUOUS
 10
0.164484
 20
0.575255
  0
VERTEX
  8
LAYER_1
 62
    20
  6
CONTINUOUS
 10
0.175647
 20
0.587932
  0
VERTEX
  8
LAYER_1
 62
    20
  6
CONTINUOUS
 10
0.185138
 20
0.601962
  0
VERTEX
  8
LAYER_1
 62
    20
  6
CONTINUOUS
 10
0.192796
 20
0.617187
  0
VERTEX
  8
LAYER_1
 62
    20
  6
CONTINUOUS
 10
0.198464
 20
0.633449
  0
VERTEX
  8
LAYER_1
 62
    20
  6
CONTINUOUS
 10
0.201981
 20
0.650586
  0
VERTEX
  8
LAYER_1
 62
    20
  6
CONTINUOUS
 10
0.203189
 20
0.668441
  0
VERTEX
  8
LAYER_1
 62
    20
  6
CONTINUOUS
 10
0.201981
 20
0.686296
  0
VERTEX
  8
LAYER_1
 62
    20
  6
CONTINUOUS
 10
0.198464
 20
0.703433
  0
VERTEX
  8
LAYER_1
 62
    20
  6
CONTINUOUS
 10
0.192796
 20
0.719694
  0
VERTEX
  8
LAYER_1
 62
    20
  6
CONTINUOUS
 10
0.185138
 20
0.734920
  0
VERTEX
  8
LAYER_1
 62
    20
  6
CONTINUOUS
 10
0.175647
 20
0.748950
  0
VERTEX
  8
LAYER_1
 62
    20
  6
CONTINUOUS
 10
0.164484
 20
0.761626
  0
VERTEX
  8
LAYER_1
 62
    20
  6
CONTINUOUS
 10
0.151808
 20
0.772789
  0
VERTEX
  8
LAYER_1
 62
    20
  6
CONTINUOUS
 10
0.137777
 20
0.782280
  0
VERTEX
  8
LAYER_1
 62
    20
  6
CONTINUOUS
 10
0.122551
 20
0.789938
  0
VERTEX
  8
LAYER_1
 62
    20
  6
CONTINUOUS
 10
0.106289
 20
0.795606
  0
VERTEX
  8
LAYER_1
 62
    20
  6
CONTINUOUS
 10
0.089151
 20
0.799123
  0
VERTEX
  8
LAYER_1
 62
    20
  6
CONTINUOUS
 10
0.071295
 20
0.800331
  0
VERTEX
  8
LAYER_1
 62
    20
  6
CONTINUOUS
 10
0.069982
 20
0.800322
  0
VERTEX
  8
LAYER_1
 62
    20
  6
CONTINUOUS
 10
0.068671
 20
0.800299
  0
VERTEX
  8
LAYER_1
 62
    20
  6
CONTINUOUS
 10
0.067362
 20
0.800264
  0
VERTEX
  8
LAYER_1
 62
    20
  6
CONTINUOUS
 10
0.067362
 20
0.829445
  0
VERTEX
  8
LAYER_1
 62
    20
  6
CONTINUOUS
 10
0.468780
 20
0.924346
  0
VERTEX
  8
LAYER_1
 62
    20
  6
CONTINUOUS
 10
0.468780
 20
1.121197
  0
VERTEX
  8
LAYER_1
 62
    20
  6
CONTINUOUS
 10
0.657913
 20
1.121197
  0
VERTEX
  8
LAYER_1
 62
    20
  6
CONTINUOUS
 10
0.657913
 20
1.076280
  0
VERTEX
  8
LAYER_1
 62
    20
  6
CONTINUOUS
 10
0.656751
 20
1.076339
  0
VERTEX
  8
LAYER_1
 62
    20
  6
CONTINUOUS
 10
0.655586
 20
1.076379
  0
VERTEX
  8
LAYER_1
 62
    20
  6
CONTINUOUS
 10
0.654413
 20
1.076394
  0
VERTEX
  8
LAYER_1
 62
    20
  6
CONTINUOUS
 10
0.635781
 20
1.073375
  0
VERTEX
  8
LAYER_1
 62
    20
  6
CONTINUOUS
 10
0.619574
 20
1.064974
  0
VERTEX
  8
LAYER_1
 62
    20
  6
CONTINUOUS
 10
0.606778
 20
1.052178
  0
VERTEX
  8
LAYER_1
 62
    20
  6
CONTINUOUS
 10
0.598377
 20
1.035971
  0
VERTEX
  8
LAYER_1
 62
    20
  6
CONTINUOUS
 10
0.595358
 20
1.017339
  0
VERTEX
  8
LAYER_1
 62
    20
  6
CONTINUOUS
 10
0.598377
 20
0.998706
  0
VERTEX
  8
LAYER_1
 62
    20
  6
CONTINUOUS
 10
0.606778
 20
0.982499
  0
VERTEX
  8
LAYER_1
 62
    20
  6
CONTINUOUS
 10
0.619574
 20
0.969703
  0
VERTEX
  8
LAYER_1
 62
    20
  6
CONTINUOUS
 10
0.635781
 20
0.961303
  0
VERTEX
  8
LAYER_1
 62
    20
  6
CONTINUOUS
 10
0.654413
 20
0.958283
  0
VERTEX
  8
LAYER_1
 62
    20
  6
CONTINUOUS
 10
0.655586
 20
0.958295
  0
VERTEX
  8
LAYER_1
 62
    20
  6
CONTINUOUS
 10
0.656751
 20
0.958330
  0
VERTEX
  8
LAYER_1
 62
    20
  6
CONTINUOUS
 10
0.657913
 20
0.958386
  0
VERTEX
  8
LAYER_1
 62
    20
  6
CONTINUOUS
 10
0.657913
 20
0.378484
  0
VERTEX
  8
LAYER_1
 62
    20
  6
CONTINUOUS
 10
0.656751
 20
0.378544
  0
VERTEX
  8
LAYER_1
 62
    20
  6
CONTINUOUS
 10
0.655586
 20
0.378584
  0
VERTEX
  8
LAYER_1
 62
    20
  6
CONTINUOUS
 10
0.654413
 20
0.378598
  0
VERTEX
  8
LAYER_1
 62
    20
  6
CONTINUOUS
 10
0.635781
 20
0.375579
  0
VERTEX
  8
LAYER_1
 62
    20
  6
CONTINUOUS
 10
0.619574
 20
0.367179
  0
VERTEX
  8
LAYER_1
 62
    20
  6
CONTINUOUS
 10
0.606778
 20
0.354383
  0
VERTEX
  8
LAYER_1
 62
    20
  6
CONTINUOUS
 10
0.598377
 20
0.338176
  0
VERTEX
  8
LAYER_1
 62
    20
  6
CONTINUOUS
 10
0.595358
 20
0.319543
  0
VERTEX
  8
LAYER_1
 62
    20
  6
CONTINUOUS
 10
0.598377
 20
0.300911
  0
VERTEX
  8
LAYER_1
 62
    20
  6
CONTINUOUS
 10
0.606778
 20
0.284704
  0
VERTEX
  8
LAYER_1
 62
    20
  6
CONTINUOUS
 10
0.619574
 20
0.271908
  0
VERTEX
  8
LAYER_1
 62
    20
  6
CONTINUOUS
 10
0.635781
 20
0.263507
  0
VERTEX
  8
LAYER_1
 62
    20
  6
CONTINUOUS
 10
0.654413
 20
0.260488
  0
VERTEX
  8
LAYER_1
 62
    20
  6
CONTINUOUS
 10
0.655586
 20
0.260500
  0
VERTEX
  8
LAYER_1
 62
    20
  6
CONTINUOUS
 10
0.656751
 20
0.260534
  0
VERTEX
  8
LAYER_1
 62
    20
  6
CONTINUOUS
 10
0.657913
 20
0.260591
  0
VERTEX
  8
LAYER_1
 62
    20
  6
CONTINUOUS
 10
0.657913
 20
0.215685
  0
VERTEX
  8
LAYER_1
 62
    20
  6
CONTINUOUS
 10
0.468783
 20
0.215685
  0
VERTEX
  8
LAYER_1
 62
    20
  6
CONTINUOUS
 10
0.468780
 20
0.412535
  0
SEQEND
  8
0
  0
POLYLINE
  8
LAYER_1
 62
    20
  6
CONTINUOUS
 66
     1
 40
0.003000
 41
0.003000
 70
     1
  0
VERTEX
  8
LAYER_1
 62
    20
  6
CONTINUOUS
 10
0.358701
 20
0.668441
  0
VERTEX
  8
LAYER_1
 62
    20
  6
CONTINUOUS
 10
0.361921
 20
0.688314
  0
VERTEX
  8
LAYER_1
 62
    20
  6
CONTINUOUS
 10
0.370882
 20
0.705602
  0
VERTEX
  8
LAYER_1
 62
    20
  6
CONTINUOUS
 10
0.384532
 20
0.719251
  0
VERTEX
  8
LAYER_1
 62
    20
  6
CONTINUOUS
 10
0.401820
 20
0.728212
  0
VERTEX
  8
LAYER_1
 62
    20
  6
CONTINUOUS
 10
0.421693
 20
0.731433
  0
VERTEX
  8
LAYER_1
 62
    20
  6
CONTINUOUS
 10
0.441566
 20
0.728212
  0
VERTEX
  8
LAYER_1
 62
    20
  6
CONTINUOUS
 10
0.458853
 20
0.719251
  0
VERTEX
  8
LAYER_1
 62
    20
  6
CONTINUOUS
 10
0.472503
 20
0.705602
  0
VERTEX
  8
LAYER_1
 62
    20
  6
CONTINUOUS
 10
0.481464
 20
0.688314
  0
VERTEX
  8
LAYER_1
 62
    20
  6
CONTINUOUS
 10
0.484685
 20
0.668441
  0
VERTEX
  8
LAYER_1
 62
    20
  6
CONTINUOUS
 10
0.481464
 20
0.648568
  0
VERTEX
  8
LAYER_1
 62
    20
  6
CONTINUOUS
 10
0.472503
 20
0.631280
  0
VERTEX
  8
LAYER_1
 62
    20
  6
CONTINUOUS
 10
0.458853
 20
0.617630
  0
VERTEX
  8
LAYER_1
 62
    20
  6
CONTINUOUS
 10
0.441566
 20
0.608669
  0
VERTEX
  8
LAYER_1
 62
    20
  6
CONTINUOUS
 10
0.421693
 20
0.605449
  0
VERTEX
  8
LAYER_1
 62
    20
  6
CONTINUOUS
 10
0.401820
 20
0.608669
  0
VERTEX
  8
LAYER_1
 62
    20
  6
CONTINUOUS
 10
0.384532
 20
0.617630
  0
VERTEX
  8
LAYER_1
 62
    20
  6
CONTINUOUS
 10
0.370882
 20
0.631280
  0
VERTEX
  8
LAYER_1
 62
    20
  6
CONTINUOUS
 10
0.361921
 20
0.648568
  0
SEQEND
  8
0
  0
POLYLINE
  8
LAYER_1
 62
    20
  6
CONTINUOUS
 66
     1
 40
0.003000
 41
0.003000
 70
     1
  0
VERTEX
  8
LAYER_1
 62
    20
  6
CONTINUOUS
 10
1.248465
 20
0.507437
  0
VERTEX
  8
LAYER_1
 62
    20
  6
CONTINUOUS
 10
1.248465
 20
0.536610
  0
VERTEX
  8
LAYER_1
 62
    20
  6
CONTINUOUS
 10
1.247156
 20
0.536577
  0
VERTEX
  8
LAYER_1
 62
    20
  6
CONTINUOUS
 10
1.245845
 20
0.536558
  0
VERTEX
  8
LAYER_1
 62
    20
  6
CONTINUOUS
 10
1.244531
 20
0.536551
  0
VERTEX
  8
LAYER_1
 62
    20
  6
CONTINUOUS
 10
1.226676
 20
0.537759
  0
VERTEX
  8
LAYER_1
 62
    20
  6
CONTINUOUS
 10
1.209537
 20
0.541276
  0
VERTEX
  8
LAYER_1
 62
    20
  6
CONTINUOUS
 10
1.193276
 20
0.546944
  0
VERTEX
  8
LAYER_1
 62
    20
  6
CONTINUOUS
 10
1.178050
 20
0.554602
  0
VERTEX
  8
LAYER_1
 62
    20
  6
CONTINUOUS
 10
1.164019
 20
0.564093
  0
VERTEX
  8
LAYER_1
 62
    20
  6
CONTINUOUS
 10
1.151343
 20
0.575255
  0
VERTEX
  8
LAYER_1
 62
    20
  6
CONTINUOUS
 10
1.140179
 20
0.587932
  0
VERTEX
  8
LAYER_1
 62
    20
  6
CONTINUOUS
 10
1.130689
 20
0.601962
  0
VERTEX
  8
LAYER_1
 62
    20
  6
CONTINUOUS
 10
1.123030
 20
0.617187
  0
VERTEX
  8
LAYER_1
 62
    20
  6
CONTINUOUS
 10
1.117363
 20
0.633449
  0
VERTEX
  8
LAYER_1
 62
    20
  6
CONTINUOUS
 10
1.113846
 20
0.650586
  0
VERTEX
  8
LAYER_1
 62
    20
  6
CONTINUOUS
 10
1.112638
 20
0.668441
  0
VERTEX
  8
LAYER_1
 62
    20
  6
CONTINUOUS
 10
1.113846
 20
0.686296
  0
VERTEX
  8
LAYER_1
 62
    20
  6
CONTINUOUS
 10
1.117363
 20
0.703433
  0
VERTEX
  8
LAYER_1
 62
    20
  6
CONTINUOUS
 10
1.123030
 20
0.719694
  0
VERTEX
  8
LAYER_1
 62
    20
  6
CONTINUOUS
 10
1.130689
 20
0.734920
  0
VERTEX
  8
LAYER_1
 62
    20
  6
CONTINUOUS
 10
1.140179
 20
0.748950
  0
VERTEX
  8
LAYER_1
 62
    20
  6
CONTINUOUS
 10
1.151343
 20
0.761626
  0
VERTEX
  8
LAYER_1
 62
    20
  6
CONTINUOUS
 10
1.164019
 20
0.772789
  0
VERTEX
  8
LAYER_1
 62
    20
  6
CONTINUOUS
 10
1.178050
 20
0.782280
  0
VERTEX
  8
LAYER_1
 62
    20
  6
CONTINUOUS
 10
1.193276
 20
0.789938
  0
VERTEX
  8
LAYER_1
 62
    20
  6
CONTINUOUS
 10
1.209537
 20
0.795606
  0
VERTEX
  8
LAYER_1
 62
    20
  6
CONTINUOUS
 10
1.226676
 20
0.799123
  0
VERTEX
  8
LAYER_1
 62
    20
  6
CONTINUOUS
 10
1.244531
 20
0.800331
  0
VERTEX
  8
LAYER_1
 62
    20
  6
CONTINUOUS
 10
1.245845
 20
0.800322
  0
VERTEX
  8
LAYER_1
 62
    20
  6
CONTINUOUS
 10
1.247156
 20
0.800299
  0
VERTEX
  8
LAYER_1
 62
    20
  6
CONTINUOUS
 10
1.248465
 20
0.800264
  0
VERTEX
  8
LAYER_1
 62
    20
  6
CONTINUOUS
 10
1.248465
 20
0.829445
  0
VERTEX
  8
LAYER_1
 62
    20
  6
CONTINUOUS
 10
0.776024
 20
0.924346
  0
VERTEX
  8
LAYER_1
 62
    20
  6
CONTINUOUS
 10
0.776024
 20
1.121197
  0
VERTEX
  8
LAYER_1
 62
    20
  6
CONTINUOUS
 10
0.657913
 20
1.121197
  0
VERTEX
  8
LAYER_1
 62
    20
  6
CONTINUOUS
 10
0.657913
 20
1.076280
  0
VERTEX
  8
LAYER_1
 62
    20
  6
CONTINUOUS
 10
0.659075
 20
1.076339
  0
VERTEX
  8
LAYER_1
 62
    20
  6
CONTINUOUS
 10
0.660241
 20
1.076379
  0
VERTEX
  8
LAYER_1
 62
    20
  6
CONTINUOUS
 10
0.661413
 20
1.076394
  0
VERTEX
  8
LAYER_1
 62
    20
  6
CONTINUOUS
 10
0.680046
 20
1.073375
  0
VERTEX
  8
LAYER_1
 62
    20
  6
CONTINUOUS
 10
0.696253
 20
1.064974
  0
VERTEX
  8
LAYER_1
 62
    20
  6
CONTINUOUS
 10
0.709049
 20
1.052178
  0
VERTEX
  8
LAYER_1
 62
    20
  6
CONTINUOUS
 10
0.717449
 20
1.035971
  0
VERTEX
  8
LAYER_1
 62
    20
  6
CONTINUOUS
 10
0.720469
 20
1.017339
  0
VERTEX
  8
LAYER_1
 62
    20
  6
CONTINUOUS
 10
0.717449
 20
0.998706
  0
VERTEX
  8
LAYER_1
 62
    20
  6
CONTINUOUS
 10
0.709049
 20
0.982499
  0
VERTEX
  8
LAYER_1
 62
    20
  6
CONTINUOUS
 10
0.696253
 20
0.969703
  0
VERTEX
  8
LAYER_1
 62
    20
  6
CONTINUOUS
 10
0.680046
 20
0.961303
  0
VERTEX
  8
LAYER_1
 62
    20
  6
CONTINUOUS
 10
0.661413
 20
0.958283
  0
VERTEX
  8
LAYER_1
 62
    20
  6
CONTINUOUS
 10
0.660241
 20
0.958295
  0
VERTEX
  8
LAYER_1
 62
    20
  6
CONTINUOUS
 10
0.659075
 20
0.958330
  0
VERTEX
  8
LAYER_1
 62
    20
  6
CONTINUOUS
 10
0.657913
 20
0.958386
  0
VERTEX
  8
LAYER_1
 62
    20
  6
CONTINUOUS
 10
0.657913
 20
0.378484
  0
VERTEX
  8
LAYER_1
 62
    20
  6
CONTINUOUS
 10
0.659075
 20
0.378544
  0
VERTEX
  8
LAYER_1
 62
    20
  6
CONTINUOUS
 10
0.660241
 20
0.378584
  0
VERTEX
  8
LAYER_1
 62
    20
  6
CONTINUOUS
 10
0.661413
 20
0.378598
  0
VERTEX
  8
LAYER_1
 62
    20
  6
CONTINUOUS
 10
0.680046
 20
0.375579
  0
VERTEX
  8
LAYER_1
 62
    20
  6
CONTINUOUS
 10
0.696253
 20
0.367179
  0
VERTEX
  8
LAYER_1
 62
    20
  6
CONTINUOUS
 10
0.709049
 20
0.354383
  0
VERTEX
  8
LAYER_1
 62
    20
  6
CONTINUOUS
 10
0.717449
 20
0.338176
  0
VERTEX
  8
LAYER_1
 62
    20
  6
CONTINUOUS
 10
0.720469
 20
0.319543
  0
VERTEX
  8
LAYER_1
 62
    20
  6
CONTINUOUS
 10
0.717449
 20
0.300911
  0
VERTEX
  8
LAYER_1
 62
    20
  6
CONTINUOUS
 10
0.709049
 20
0.284704
  0
VERTEX
  8
LAYER_1
 62
    20
  6
CONTINUOUS
 10
0.696253
 20
0.271908
  0
VERTEX
  8
LAYER_1
 62
    20
  6
CONTINUOUS
 10
0.680046
 20
0.263507
  0
VERTEX
  8
LAYER_1
 62
    20
  6
CONTINUOUS
 10
0.661413
 20
0.260488
  0
VERTEX
  8
LAYER_1
 62
    20
  6
CONTINUOUS
 10
0.660241
 20
0.260500
  0
VERTEX
  8
LAYER_1
 62
    20
  6
CONTINUOUS
 10
0.659075
 20
0.260534
  0
VERTEX
  8
LAYER_1
 62
    20
  6
CONTINUOUS
 10
0.657913
 20
0.260591
  0
VERTEX
  8
LAYER_1
 62
    20
  6
CONTINUOUS
 10
0.657913
 20
0.215685
  0
VERTEX
  8
LAYER_1
 62
    20
  6
CONTINUOUS
 10
0.776024
 20
0.215685
  0
VERTEX
  8
LAYER_1
 62
    20
  6
CONTINUOUS
 10
0.776024
 20
0.412535
  0
SEQEND
  8
0
  0
POLYLINE
  8
LAYER_1
 62
    20
  6
CONTINUOUS
 66
     1
 40
0.003000
 41
0.003000
 70
     1
  0
VERTEX
  8
LAYER_1
 62
    20
  6
CONTINUOUS
 10
0.957126
 20
0.668441
  0
VERTEX
  8
LAYER_1
 62
    20
  6
CONTINUOUS
 10
0.953905
 20
0.688314
  0
VERTEX
  8
LAYER_1
 62
    20
  6
CONTINUOUS
 10
0.944944
 20
0.705602
  0
VERTEX
  8
LAYER_1
 62
    20
  6
CONTINUOUS
 10
0.931294
 20
0.719251
  0
VERTEX
  8
LAYER_1
 62
    20
  6
CONTINUOUS
 10
0.914007
 20
0.728212
  0
VERTEX
  8
LAYER_1
 62
    20
  6
CONTINUOUS
 10
0.894134
 20
0.731433
  0
VERTEX
  8
LAYER_1
 62
    20
  6
CONTINUOUS
 10
0.874261
 20
0.728212
  0
VERTEX
  8
LAYER_1
 62
    20
  6
CONTINUOUS
 10
0.856973
 20
0.719251
  0
VERTEX
  8
LAYER_1
 62
    20
  6
CONTINUOUS
 10
0.843323
 20
0.705602
  0
VERTEX
  8
LAYER_1
 62
    20
  6
CONTINUOUS
 10
0.834362
 20
0.688314
  0
VERTEX
  8
LAYER_1
 62
    20
  6
CONTINUOUS
 10
0.831142
 20
0.668441
  0
VERTEX
  8
LAYER_1
 62
    20
  6
CONTINUOUS
 10
0.834362
 20
0.648568
  0
VERTEX
  8
LAYER_1
 62
    20
  6
CONTINUOUS
 10
0.843323
 20
0.631280
  0
VERTEX
  8
LAYER_1
 62
    20
  6
CONTINUOUS
 10
0.856973
 20
0.617630
  0
VERTEX
  8
LAYER_1
 62
    20
  6
CONTINUOUS
 10
0.874261
 20
0.608669
  0
VERTEX
  8
LAYER_1
 62
    20
  6
CONTINUOUS
 10
0.894134
 20
0.605449
  0
VERTEX
  8
LAYER_1
 62
    20
  6
CONTINUOUS
 10
0.914007
 20
0.608669
  0
VERTEX
  8
LAYER_1
 62
    20
  6
CONTINUOUS
 10
0.931294
 20
0.617630
  0
VERTEX
  8
LAYER_1
 62
    20
  6
CONTINUOUS
 10
0.944944
 20
0.631280
  0
VERTEX
  8
LAYER_1
 62
    20
  6
CONTINUOUS
 10
0.953905
 20
0.648568
  0
SEQEND
  8
0
  0
ENDSEC
  0
EOF
